  0
SECTION
  2
HEADER
  9
$ACADVER
  1
AC1006
  9
$INSBASE
 10
0.000000
 20
0.000000
 30
0.0
  9
$EXTMIN
 10
0.000000
 20
0.000000
  9
$EXTMAX
 10
420.000000
 20
297.000000
  9
$LIMMIN
 10
0.000000
 20
0.000000
  9
$LIMMAX
 10
420.000000
 20
297.000000
  9
$VIEWCTR
 10
210.000000
 20
148.500000
  9
$VIEWSIZE
 40
297.000000
  9
$SNAPMODE
 70
     0
  9
$SNAPUNIT
 10
1.0
 20
1.0
  9
$SNAPBASE
 10
0.0
 20
0.0
  9
$SNAPANG
 50
0.0
  9
$SNAPSTYLE
 70
     0
  9
$SNAPISOPAIR
 70
     0
  9
$GRIDMODE
 70
     0
  9
$GRIDUNIT
 10
0.0
 20
0.0
  9
$ORTHOMODE
 70
     0
  9
$REGENMODE
 70
     1
  9
$FILLMODE
 70
     1
  9
$QTEXTMODE
 70
     0
  9
$DRAGMODE
 70
     2
  9
$LTSCALE
 40
15.000000
  9
$OSMODE
 70
     0
  9
$ATTMODE
 70
     1
  9
$TEXTSIZE
 40
0.2
  9
$TRACEWID
 40
0.05
  9
$TEXTSTYLE
  7
STANDARD
  9
$CLAYER
  8
CSLAYER1
  9
$CELTYPE
  6
BYLAYER
  9
$CECOLOR
 62
   256
  9
$DIMSCALE
 40
1.0
  9
$DIMASZ
 40
0.18
  9
$DIMEXO
 40
0.0625
  9
$DIMDLI
 40
0.38
  9
$DIMRND
 40
0.0
  9
$DIMDLE
 40
0.0
  9
$DIMEXE
 40
0.18
  9
$DIMTP
 40
0.0
  9
$DIMTM
 40
0.0
  9
$DIMTXT
 40
0.18
  9
$DIMCEN
 40
0.09
  9
$DIMTSZ
 40
0.0
  9
$DIMTOL
 70
     0
  9
$DIMLIM
 70
     0
  9
$DIMTIH
 70
     1
  9
$DIMTOH
 70
     1
  9
$DIMSE1
 70
     0
  9
$DIMSE2
 70
     0
  9
$DIMTAD
 70
     0
  9
$DIMZIN
 70
     0
  9
$DIMBLK
  1

  9
$LUNITS
 70
     2
  9
$LUPREC
 70
     4
  9
$AXISMODE
 70
     0
  9
$AXISUNIT
 10
0.0
 20
0.0
  9
$SKETCHINC
 40
0.1
  9
$FILLETRAD
 40
0.0
  9
$AUNITS
 70
     0
  9
$AUPREC
 70
     0
  9
$MENU
  1
ACAD
  9
$ELEVATION
 40
0.0
  9
$THICKNESS
 40
0.0
  9
$VIEWDIR
 10
0.0
 20
0.0
 30
1.0
  9
$LIMCHECK
 70
     0
  9
$BLIPMODE
 70
     1
  9
$CHAMFERA
 40
0.0
  9
$CHAMFERB
 40
0.0
  9
$FASTZOOM
 70
     1
  9
$SKPOLY
 70
     0
  9
$TDCREATE
 40
2454214.000000
  9
$TDUPDATE
 40
2454237.000000
  9
$TDINDWG
 40
0.0
  9
$TDUSRTIMER
 40
0.0
  9
$USRTIMER
 70
     1
  9
$ANGBASE
 50
0.0
  9
$ANGDIR
 70
     0
  9
$PDMODE
 70
     0
  9
$PDSIZE
 40
0.0
  9
$PLINEWID
 40
0.0
  9
$COORDS
 70
     0
  9
$USERI1
 70
     0
  9
$USERI2
 70
     0
  9
$USERI3
 70
     0
  9
$USERI4
 70
     0
  9
$USERI5
 70
     0
  9
$USERR1
 40
0.0
  9
$USERR2
 40
0.0
  9
$USERR3
 40
0.0
  9
$USERR4
 40
0.0
  9
$USERR5
 40
0.0
  0
ENDSEC
  0
SECTION
  2
TABLES
  0
TABLE
  2
LTYPE
 70
     9
  0
LTYPE
  2
CONTINUOUS
 70
    64
  3
Solid line
 72
    65
 73
     0
 40
0.0
  0
LTYPE
  2
DASHED
 70
    64
  3
__ __ __ __ __ __ __ __ __ __ __ __ __ __ __
 72
    65
 73
     2
 40
0.75
 49
0.5
 49
-0.25
  0
LTYPE
  2
HIDDEN
 70
    64
  3
_ _ _ _ _ _ _ _ _ _ _ _ _ _ _ _ _ _ _ _ _ _ _
 72
    65
 73
     2
 40
0.375
 49
0.25
 49
-0.125
  0
LTYPE
  2
DOT
 70
    64
  3
...............................................
 72
    65
 73
     2
 40
0.25
 49
0.0
 49
-0.25
  0
LTYPE
  2
DASHDOT
 70
    64
  3
__ . __ . __ . __ . __ . __ . __ . __ . __ . __
 72
    65
 73
     4
 40
1.0
 49
0.5
 49
-0.25
 49
0.0
 49
-0.25
  0
LTYPE
  2
DIVIDE
 70
    64
  3
__ . . __ . . __ . . __ . . __ . . __ . . __
 72
    65
 73
     6
 40
1.25
 49
0.5
 49
-0.25
 49
0.0
 49
-0.25
 49
0.0
 49
-0.25
  0
LTYPE
  2
CENTER
 70
    64
  3
____ _ ____ _ ____ _ ____ _ ____ _ ____ _ ____ 
 72
    65
 73
     4
 40
2.0
 49
1.25
 49
-0.25
 49
0.25
 49
-0.25
  0
LTYPE
  2
PHANTOM
 70
    64
  3
______  __  __  ______  __  __  ______  __  __ 
 72
    65
 73
     6
 40
2.5
 49
1.25
 49
-0.25
 49
0.25
 49
-0.25
 49
0.25
 49
-0.25
  0
LTYPE
  2
BORDER
 70
    64
  3
__ __ . __ __ . __ __ . __ __ . __ __ . __ __ .
 72
    65
 73
     6
 40
1.75
 49
0.5
 49
-0.25
 49
0.5
 49
-0.25
 49
0.0
 49
-0.25
  0
ENDTAB
  0
TABLE
  2
LAYER
 70
    16
  0
LAYER
  2
CSLAYER1
 70
    64
 62
     7
  6
CONTINUOUS
  0
LAYER
  2
CSLAYER2
 70
    64
 62
     7
  6
CONTINUOUS
  0
LAYER
  2
CSLAYER3
 70
    64
 62
     7
  6
CONTINUOUS
  0
LAYER
  2
CSLAYER4
 70
    64
 62
     7
  6
CONTINUOUS
  0
LAYER
  2
CSLAYER5
 70
    64
 62
     7
  6
CONTINUOUS
  0
LAYER
  2
CSLAYER6
 70
    64
 62
     7
  6
CONTINUOUS
  0
LAYER
  2
CSLAYER7
 70
    64
 62
     7
  6
CONTINUOUS
  0
LAYER
  2
CSLAYER8
 70
    64
 62
     7
  6
CONTINUOUS
  0
LAYER
  2
CSLAYER9
 70
    64
 62
     7
  6
CONTINUOUS
  0
LAYER
  2
CSLAYER10
 70
    64
 62
     7
  6
CONTINUOUS
  0
LAYER
  2
CSLAYER11
 70
    64
 62
     7
  6
CONTINUOUS
  0
LAYER
  2
CSLAYER12
 70
    64
 62
     7
  6
CONTINUOUS
  0
LAYER
  2
CSLAYER13
 70
    64
 62
     7
  6
CONTINUOUS
  0
LAYER
  2
CSLAYER14
 70
    64
 62
     7
  6
CONTINUOUS
  0
LAYER
  2
CSLAYER15
 70
    64
 62
     7
  6
CONTINUOUS
  0
LAYER
  2
CSLAYER16
 70
    64
 62
     7
  6
CONTINUOUS
  0
ENDTAB
  0
TABLE
  2
STYLE
 70
     1
  0
STYLE
  2
FX_FONT
 70
     0
 40
1.0
 41
1.0
 50
0.0
 71
     0
 42
1.0
  3
monotxt
  4
bigfont
  0
ENDTAB
  0
TABLE
  2
VIEW
 70
     0
  0
ENDTAB
  0
ENDSEC
  0
SECTION
  2
BLOCKS
  0
ENDSEC
  0
SECTION
  2
ENTITIES
  0
TEXT
  8
CSLAYER1
 62
     3
 10
369.983337
 20
16.193443
 40
4.000000
 41
1.038462
  1
MS-100□10
 50
0.000000
 51
10.000000
  7
FX_FONT
 72
     5
 11
405.983337
 21
16.193443
  0
TEXT
  8
CSLAYER1
 62
     4
 10
369.983337
 20
10.193444
 40
3.500000
 41
1.071429
  1
尺度1：1
 50
0.000000
 51
10.000000
  7
FX_FONT
 72
     5
 11
387.483337
 21
10.193444
  0
TEXT
  8
CSLAYER1
 62
     3
 10
369.983337
 20
22.193445
 40
4.000000
 41
1.038462
  1
DCモータドライバ
 50
0.000000
 51
10.000000
  7
FX_FONT
 72
     5
 11
405.983337
 21
22.193445
  0
LINE
  8
CSLAYER1
  6
CONTINUOUS
 62
     7
 10
286.500000
 20
284.500000
 11
145.500000
 21
284.500000
  0
LINE
  8
CSLAYER1
  6
CONTINUOUS
 62
     7
 10
143.500000
 20
282.500000
 11
143.500000
 21
244.500000
  0
LINE
  8
CSLAYER1
  6
CONTINUOUS
 62
     7
 10
143.500000
 20
244.500000
 11
144.500000
 21
244.500000
  0
LINE
  8
CSLAYER1
  6
CONTINUOUS
 62
     7
 10
259.500000
 20
283.500000
 11
259.500000
 21
284.500000
  0
LINE
  8
CSLAYER1
  6
CONTINUOUS
 62
     7
 10
257.500000
 20
283.500000
 11
257.500000
 21
284.500000
  0
LINE
  8
CSLAYER1
  6
CONTINUOUS
 62
     7
 10
245.500000
 20
283.500000
 11
245.500000
 21
284.500000
  0
LINE
  8
CSLAYER1
  6
CONTINUOUS
 62
     7
 10
247.500000
 20
283.500000
 11
247.500000
 21
284.500000
  0
LINE
  8
CSLAYER1
  6
CONTINUOUS
 62
     7
 10
179.500000
 20
283.500000
 11
179.500000
 21
284.500000
  0
LINE
  8
CSLAYER1
  6
CONTINUOUS
 62
     7
 10
177.500000
 20
283.500000
 11
177.500000
 21
284.500000
  0
LINE
  8
CSLAYER1
  6
CONTINUOUS
 62
     7
 10
165.500000
 20
283.500000
 11
165.500000
 21
284.500000
  0
LINE
  8
CSLAYER1
  6
CONTINUOUS
 62
     7
 10
167.500000
 20
283.500000
 11
167.500000
 21
284.500000
  0
LINE
  8
CSLAYER1
  6
CONTINUOUS
 62
     7
 10
286.500000
 20
282.500000
 11
286.500000
 21
284.500000
  0
LINE
  8
CSLAYER1
  6
CONTINUOUS
 62
     6
 10
145.500000
 20
62.500000
 11
145.500000
 21
61.500000
  0
LINE
  8
CSLAYER1
  6
CONTINUOUS
 62
     6
 10
144.500000
 20
63.500000
 11
143.500000
 21
63.500000
  0
LINE
  8
CSLAYER1
  6
CONTINUOUS
 62
     6
 10
286.500000
 20
61.500000
 11
145.500000
 21
61.500000
  0
LINE
  8
CSLAYER1
  6
CONTINUOUS
 62
     6
 10
143.500000
 20
63.500000
 11
143.500000
 21
231.500000
  0
CIRCLE
  8
CSLAYER1
  6
DOT
 62
     3
 10
162.500000
 20
226.500000
 40
2.000000
  0
CIRCLE
  8
CSLAYER1
  6
DOT
 62
     3
 10
162.500000
 20
226.500000
 40
1.600000
  0
LINE
  8
CSLAYER1
  6
DOT
 62
     3
 10
152.500000
 20
225.000000
 11
152.500000
 21
218.000000
  0
LINE
  8
CSLAYER1
  6
DOT
 62
     3
 10
156.000000
 20
221.500000
 11
149.000000
 21
221.500000
  0
CIRCLE
  8
CSLAYER1
  6
DOT
 62
     3
 10
152.500000
 20
221.500000
 40
1.500000
  0
CIRCLE
  8
CSLAYER1
  6
DOT
 62
     3
 10
267.500000
 20
226.500000
 40
2.000000
  0
CIRCLE
  8
CSLAYER1
  6
DOT
 62
     3
 10
267.500000
 20
226.500000
 40
1.600000
  0
LINE
  8
CSLAYER1
  6
DOT
 62
     3
 10
277.500000
 20
225.000000
 11
277.500000
 21
218.000000
  0
LINE
  8
CSLAYER1
  6
DOT
 62
     3
 10
281.000000
 20
221.500000
 11
274.000000
 21
221.500000
  0
CIRCLE
  8
CSLAYER1
  6
DOT
 62
     3
 10
277.500000
 20
221.500000
 40
1.500000
  0
LINE
  8
CSLAYER1
  6
DOT
 62
     3
 10
281.000000
 20
71.500000
 11
263.000000
 21
71.500000
  0
CIRCLE
  8
CSLAYER1
  6
DOT
 62
     3
 10
267.500000
 20
71.500000
 40
2.000000
  0
CIRCLE
  8
CSLAYER1
  6
DOT
 62
     3
 10
267.500000
 20
71.500000
 40
1.600000
  0
LINE
  8
CSLAYER1
  6
DOT
 62
     3
 10
277.500000
 20
75.000000
 11
277.500000
 21
68.000000
  0
CIRCLE
  8
CSLAYER1
  6
DOT
 62
     3
 10
277.500000
 20
71.500000
 40
1.500000
  0
LINE
  8
CSLAYER1
  6
DOT
 62
     3
 10
149.000000
 20
71.500000
 11
167.000000
 21
71.500000
  0
CIRCLE
  8
CSLAYER1
  6
DOT
 62
     3
 10
162.500000
 20
71.500000
 40
2.000000
  0
CIRCLE
  8
CSLAYER1
  6
DOT
 62
     3
 10
162.500000
 20
71.500000
 40
1.600000
  0
LINE
  8
CSLAYER1
  6
DOT
 62
     3
 10
152.500000
 20
75.000000
 11
152.500000
 21
68.000000
  0
CIRCLE
  8
CSLAYER1
  6
DOT
 62
     3
 10
152.500000
 20
71.500000
 40
1.500000
  0
LINE
  8
CSLAYER1
  6
DOT
 62
     3
 10
267.500000
 20
231.000000
 11
267.500000
 21
222.000000
  0
LINE
  8
CSLAYER1
  6
DOT
 62
     3
 10
272.000000
 20
226.500000
 11
263.000000
 21
226.500000
  0
LINE
  8
CSLAYER1
  6
DOT
 62
     3
 10
162.500000
 20
231.000000
 11
162.500000
 21
222.000000
  0
LINE
  8
CSLAYER1
  6
DOT
 62
     3
 10
167.000000
 20
226.500000
 11
158.000000
 21
226.500000
  0
LINE
  8
CSLAYER1
  6
DOT
 62
     3
 10
267.500000
 20
76.000000
 11
267.500000
 21
67.000000
  0
LINE
  8
CSLAYER1
  6
DOT
 62
     3
 10
162.500000
 20
76.000000
 11
162.500000
 21
67.000000
  0
LINE
  8
CSLAYER1
  6
CONTINUOUS
 62
     7
 10
165.500000
 20
62.500000
 11
165.500000
 21
61.500000
  0
LINE
  8
CSLAYER1
  6
CONTINUOUS
 62
     7
 10
167.500000
 20
62.500000
 11
167.500000
 21
61.500000
  0
LINE
  8
CSLAYER1
  6
CONTINUOUS
 62
     7
 10
179.500000
 20
62.500000
 11
179.500000
 21
61.500000
  0
LINE
  8
CSLAYER1
  6
CONTINUOUS
 62
     7
 10
177.500000
 20
62.500000
 11
177.500000
 21
61.500000
  0
LINE
  8
CSLAYER1
  6
CONTINUOUS
 62
     7
 10
245.500000
 20
62.500000
 11
245.500000
 21
61.500000
  0
LINE
  8
CSLAYER1
  6
CONTINUOUS
 62
     7
 10
247.500000
 20
62.500000
 11
247.500000
 21
61.500000
  0
LINE
  8
CSLAYER1
  6
CONTINUOUS
 62
     7
 10
259.500000
 20
62.500000
 11
259.500000
 21
61.500000
  0
LINE
  8
CSLAYER1
  6
CONTINUOUS
 62
     7
 10
257.500000
 20
62.500000
 11
257.500000
 21
61.500000
  0
LINE
  8
CSLAYER1
  6
CONTINUOUS
 62
     7
 10
286.500000
 20
62.500000
 11
286.500000
 21
61.500000
  0
LINE
  8
CSLAYER1
  6
CONTINUOUS
 62
     7
 10
143.500000
 20
231.500000
 11
144.500000
 21
231.500000
  0
LINE
  8
CSLAYER1
  6
CONTINUOUS
 62
     6
 10
288.000000
 20
11.000000
 11
288.000000
 21
49.500000
  0
LINE
  8
CSLAYER1
  6
CONTINUOUS
 62
     6
 10
286.500000
 20
11.000000
 11
286.500000
 21
51.436492
  0
LINE
  8
CSLAYER1
  6
CONTINUOUS
 62
     6
 10
144.500000
 20
50.000000
 11
144.500000
 21
51.500000
  0
LINE
  8
CSLAYER1
  6
CONTINUOUS
 62
     6
 10
144.500000
 20
51.500000
 11
286.000000
 21
51.500000
  0
ARC
  8
CSLAYER1
  6
CONTINUOUS
 62
     6
 10
286.000000
 20
49.500000
 40
2.000000
 50
0.000000
 51
90.000000
  0
LINE
  8
CSLAYER1
  6
CONTINUOUS
 62
     7
 10
144.500000
 20
50.000000
 11
288.000000
 21
50.000000
  0
LINE
  8
CSLAYER1
  6
CONTINUOUS
 62
     7
 10
286.500000
 20
11.000000
 11
288.000000
 21
11.000000
  0
LINE
  8
CSLAYER1
  6
CONTINUOUS
 62
     6
 10
319.500000
 20
62.500000
 11
319.500000
 21
61.500000
  0
LINE
  8
CSLAYER1
  6
CONTINUOUS
 62
     6
 10
359.500000
 20
231.500000
 11
359.500000
 21
63.500000
  0
LINE
  8
CSLAYER1
  6
CONTINUOUS
 62
     6
 10
357.500000
 20
61.500000
 11
319.500000
 21
61.500000
  0
ARC
  8
CSLAYER1
  6
CONTINUOUS
 62
     7
 10
357.500000
 20
63.500000
 40
2.000000
 50
270.000000
 51
360.000000
  0
LINE
  8
CSLAYER1
  6
CONTINUOUS
 62
     7
 10
332.500000
 20
62.500000
 11
332.500000
 21
61.500000
  0
LINE
  8
CSLAYER1
  6
CONTINUOUS
 62
     7
 10
334.500000
 20
62.500000
 11
334.500000
 21
61.500000
  0
LINE
  8
CSLAYER1
  6
CONTINUOUS
 62
     7
 10
346.500000
 20
62.500000
 11
346.500000
 21
61.500000
  0
LINE
  8
CSLAYER1
  6
CONTINUOUS
 62
     7
 10
344.500000
 20
62.500000
 11
344.500000
 21
61.500000
  0
TEXT
  8
CSLAYER1
 62
     3
 10
65.000000
 20
206.250000
 40
4.500000
 41
0.750000
  1
PS+
 50
0.000000
 51
0.000000
  7
FX_FONT
 72
     5
 11
74.000000
 21
206.250000
  0
TEXT
  8
CSLAYER1
 62
     3
 10
65.000000
 20
196.250000
 40
4.500000
 41
0.750000
  1
PS-
 50
0.000000
 51
0.000000
  7
FX_FONT
 72
     5
 11
74.000000
 21
196.250000
  0
TEXT
  8
CSLAYER1
 62
     3
 10
65.000000
 20
186.250000
 40
4.500000
 41
0.800000
  1
FG
 50
0.000000
 51
0.000000
  7
FX_FONT
 72
     5
 11
71.000000
 21
186.250000
  0
TEXT
  8
CSLAYER1
 62
     3
 10
65.000000
 20
176.250000
 40
4.500000
 41
0.800000
  1
M+
 50
0.000000
 51
0.000000
  7
FX_FONT
 72
     5
 11
71.000000
 21
176.250000
  0
TEXT
  8
CSLAYER1
 62
     3
 10
65.000000
 20
166.250000
 40
4.500000
 41
0.800000
  1
M-
 50
0.000000
 51
0.000000
  7
FX_FONT
 72
     5
 11
71.000000
 21
166.250000
  0
TEXT
  8
CSLAYER1
 62
     3
 10
75.301147
 20
70.339554
 40
3.500000
 41
0.834783
  1
SAWAMURA
 50
0.000000
 51
0.000000
  7
FX_FONT
 72
     5
 11
97.701147
 21
70.339554
  0
TEXT
  8
CSLAYER1
 62
     3
 10
75.301147
 20
66.159561
 40
3.500000
 41
0.857143
  1
DENKI
 50
0.000000
 51
0.000000
  7
FX_FONT
 72
     5
 11
89.301147
 21
66.159561
  0
LINE
  8
CSLAYER1
  6
DASHED
 62
     3
 10
64.000000
 20
231.500000
 11
64.000000
 21
63.500000
  0
LINE
  8
CSLAYER1
  6
CONTINUOUS
 62
     6
 10
101.000000
 20
231.500000
 11
62.000000
 21
231.500000
  0
LINE
  8
CSLAYER1
  6
CONTINUOUS
 62
     6
 10
102.000000
 20
230.500000
 11
102.000000
 21
61.500000
  0
LINE
  8
CSLAYER1
  6
CONTINUOUS
 62
     6
 10
62.000000
 20
63.500000
 11
102.000000
 21
63.500000
  0
LINE
  8
CSLAYER1
  6
CONTINUOUS
 62
     6
 10
62.000000
 20
231.500000
 11
62.000000
 21
63.500000
  0
LINE
  8
CSLAYER1
  6
CONTINUOUS
 62
     6
 10
64.000000
 20
61.500000
 11
102.000000
 21
61.500000
  0
LINE
  8
CSLAYER1
  6
CONTINUOUS
 62
     6
 10
102.000000
 20
230.500000
 11
101.000000
 21
231.500000
  0
LINE
  8
CSLAYER1
  6
CENTER
 62
     3
 10
97.000000
 20
230.500000
 11
97.000000
 21
222.500000
  0
LINE
  8
CSLAYER1
  6
CENTER
 62
     3
 10
72.000000
 20
230.500000
 11
72.000000
 21
222.500000
  0
LINE
  8
CSLAYER1
  6
CENTER
 62
     3
 10
101.000000
 20
226.500000
 11
93.000000
 21
226.500000
  0
LINE
  8
CSLAYER1
  6
CENTER
 62
     3
 10
101.000000
 20
66.500000
 11
93.000000
 21
66.500000
  0
LINE
  8
CSLAYER1
  6
CENTER
 62
     3
 10
76.000000
 20
226.500000
 11
68.000000
 21
226.500000
  0
LINE
  8
CSLAYER1
  6
CENTER
 62
     3
 10
97.000000
 20
70.215305
 11
97.000000
 21
62.500000
  0
LINE
  8
CSLAYER1
  6
CENTER
 62
     3
 10
72.000000
 20
70.500000
 11
72.000000
 21
62.500000
  0
LINE
  8
CSLAYER1
  6
CENTER
 62
     3
 10
74.977284
 20
66.500000
 11
67.000000
 21
66.500000
  0
LINE
  8
CSLAYER1
  6
CONTINUOUS
 62
     3
 10
70.275862
 20
72.063691
 11
71.137931
 21
72.063691
  0
LINE
  8
CSLAYER1
  6
CONTINUOUS
 62
     3
 10
71.137931
 20
72.063691
 11
71.137931
 21
72.925760
  0
LINE
  8
CSLAYER1
  6
CONTINUOUS
 62
     3
 10
71.137931
 20
72.925760
 11
73.724138
 21
72.063691
  0
LINE
  8
CSLAYER1
  6
CONTINUOUS
 62
     3
 10
73.724138
 20
72.063691
 11
72.862069
 21
72.063691
  0
LINE
  8
CSLAYER1
  6
CONTINUOUS
 62
     3
 10
72.862069
 20
72.063691
 11
72.862069
 21
71.201622
  0
LINE
  8
CSLAYER1
  6
CONTINUOUS
 62
     3
 10
72.862069
 20
71.201622
 11
70.275862
 21
72.063691
  0
CIRCLE
  8
CSLAYER1
  6
CONTINUOUS
 62
     3
 10
72.000000
 20
72.063691
 40
1.724138
  0
CIRCLE
  8
CSLAYER1
  6
CONTINUOUS
 62
     3
 10
72.000000
 20
72.063691
 40
2.000000
  0
CIRCLE
  8
CSLAYER1
  6
CONTINUOUS
 62
     3
 10
97.000000
 20
66.500000
 40
2.000000
  0
CIRCLE
  8
CSLAYER1
  6
CONTINUOUS
 62
     6
 10
97.000000
 20
66.500000
 40
1.600000
  0
CIRCLE
  8
CSLAYER1
  6
CONTINUOUS
 62
     3
 10
72.000000
 20
66.500000
 40
2.000000
  0
CIRCLE
  8
CSLAYER1
  6
CONTINUOUS
 62
     6
 10
72.000000
 20
66.500000
 40
1.600000
  0
CIRCLE
  8
CSLAYER1
  6
CONTINUOUS
 62
     3
 10
97.000000
 20
226.500000
 40
2.000000
  0
CIRCLE
  8
CSLAYER1
  6
CONTINUOUS
 62
     6
 10
97.000000
 20
226.500000
 40
1.600000
  0
CIRCLE
  8
CSLAYER1
  6
CONTINUOUS
 62
     3
 10
72.000000
 20
226.500000
 40
2.000000
  0
CIRCLE
  8
CSLAYER1
  6
CONTINUOUS
 62
     6
 10
72.000000
 20
226.500000
 40
1.600000
  0
ARC
  8
CSLAYER1
  6
CONTINUOUS
 62
     7
 10
64.000000
 20
63.500000
 40
2.000000
 50
180.000000
 51
270.000000
  0
LINE
  8
CSLAYER1
  6
CONTINUOUS
 62
     6
 10
143.500000
 20
23.000000
 11
131.500000
 21
29.928203
  0
LINE
  8
CSLAYER1
  6
CONTINUOUS
 62
     6
 10
131.500000
 20
34.928203
 11
131.500000
 21
29.928203
  0
LINE
  8
CSLAYER1
  6
CONTINUOUS
 62
     6
 10
141.000000
 20
36.669873
 11
136.669873
 21
39.169873
  0
LINE
  8
CSLAYER1
  6
CONTINUOUS
 62
     6
 10
141.000000
 20
36.669873
 11
143.500000
 21
41.000000
  0
LINE
  8
CSLAYER1
  6
CONTINUOUS
 62
     6
 10
131.500000
 20
34.928203
 11
133.948929
 21
39.169873
  0
LINE
  8
CSLAYER1
  6
CONTINUOUS
 62
     6
 10
136.669873
 20
39.169873
 11
133.948929
 21
39.169873
  0
LINE
  8
CSLAYER1
  6
CONTINUOUS
 62
     6
 10
143.500000
 20
23.000000
 11
132.490000
 21
23.000000
  0
LINE
  8
CSLAYER1
  6
CONTINUOUS
 62
     6
 10
141.767949
 20
38.000000
 11
138.696152
 21
38.000000
  0
LINE
  8
CSLAYER1
  6
PHANTOM
 62
     3
 10
133.480000
 20
22.010000
 11
133.480000
 21
28.785050
  0
LINE
  8
CSLAYER1
  6
PHANTOM
 62
     3
 10
133.480000
 20
22.010000
 11
131.500000
 21
22.010000
  0
LINE
  8
CSLAYER1
  6
CONTINUOUS
 62
     6
 10
132.490000
 20
23.000000
 11
132.490000
 21
29.356626
  0
LINE
  8
CSLAYER1
  6
PHANTOM
 62
     3
 10
131.500000
 20
22.010000
 11
131.500000
 21
38.990000
  0
LINE
  8
CSLAYER1
  6
CONTINUOUS
 62
     6
 10
138.696152
 20
256.500000
 11
136.669873
 21
255.330127
  0
LINE
  8
CSLAYER1
  6
CONTINUOUS
 62
     6
 10
141.767949
 20
256.500000
 11
143.500000
 21
253.500000
  0
LINE
  8
CSLAYER1
  6
CONTINUOUS
 62
     6
 10
133.480000
 20
256.142336
 11
133.948929
 21
255.330127
  0
LINE
  8
CSLAYER1
  6
CONTINUOUS
 62
     6
 10
136.669873
 20
255.330127
 11
133.948929
 21
255.330127
  0
LINE
  8
CSLAYER1
  6
CONTINUOUS
 62
     6
 10
143.500000
 20
271.500000
 11
132.490000
 21
271.500000
  0
LINE
  8
CSLAYER1
  6
CONTINUOUS
 62
     6
 10
143.500000
 20
256.500000
 11
132.490000
 21
256.500000
  0
LINE
  8
CSLAYER1
  6
PHANTOM
 62
     3
 10
133.480000
 20
272.490000
 11
133.480000
 21
255.510000
  0
LINE
  8
CSLAYER1
  6
PHANTOM
 62
     3
 10
133.480000
 20
272.490000
 11
131.500000
 21
272.490000
  0
LINE
  8
CSLAYER1
  6
CONTINUOUS
 62
     6
 10
132.490000
 20
271.500000
 11
132.490000
 21
256.500000
  0
LINE
  8
CSLAYER1
  6
PHANTOM
 62
     3
 10
131.500000
 20
272.490000
 11
131.500000
 21
255.510000
  0
LINE
  8
CSLAYER1
  6
PHANTOM
 62
     3
 10
133.480000
 20
255.510000
 11
131.500000
 21
255.510000
  0
LINE
  8
CSLAYER1
  6
CONTINUOUS
 62
     6
 10
288.000000
 20
283.500000
 11
288.000000
 21
245.000000
  0
LINE
  8
CSLAYER1
  6
CONTINUOUS
 62
     6
 10
286.500000
 20
283.500000
 11
286.500000
 21
243.063508
  0
LINE
  8
CSLAYER1
  6
CONTINUOUS
 62
     6
 10
144.500000
 20
282.500000
 11
144.500000
 21
243.000000
  0
LINE
  8
CSLAYER1
  6
CONTINUOUS
 62
     6
 10
144.500000
 20
243.000000
 11
286.000000
 21
243.000000
  0
ARC
  8
CSLAYER1
  6
CONTINUOUS
 62
     6
 10
286.000000
 20
245.000000
 40
2.000000
 50
270.000000
 51
360.000000
  0
LINE
  8
CSLAYER1
  6
CONTINUOUS
 62
     7
 10
179.000000
 20
251.000000
 11
179.000000
 21
278.000000
  0
LINE
  8
CSLAYER1
  6
CONTINUOUS
 62
     7
 10
182.000000
 20
251.000000
 11
182.000000
 21
278.000000
  0
ARC
  8
CSLAYER1
  6
CONTINUOUS
 62
     7
 10
180.500000
 20
278.000000
 40
1.500000
 50
-0.000000
 51
180.000000
  0
ARC
  8
CSLAYER1
  6
CONTINUOUS
 62
     7
 10
180.500000
 20
251.000000
 40
1.500000
 50
180.000000
 51
360.000000
  0
LINE
  8
CSLAYER1
  6
CONTINUOUS
 62
     7
 10
185.000000
 20
251.000000
 11
185.000000
 21
278.000000
  0
LINE
  8
CSLAYER1
  6
CONTINUOUS
 62
     7
 10
188.000000
 20
251.000000
 11
188.000000
 21
278.000000
  0
ARC
  8
CSLAYER1
  6
CONTINUOUS
 62
     7
 10
186.500000
 20
278.000000
 40
1.500000
 50
-0.000000
 51
180.000000
  0
ARC
  8
CSLAYER1
  6
CONTINUOUS
 62
     7
 10
186.500000
 20
251.000000
 40
1.500000
 50
180.000000
 51
360.000000
  0
LINE
  8
CSLAYER1
  6
CONTINUOUS
 62
     7
 10
191.000000
 20
251.000000
 11
191.000000
 21
278.000000
  0
LINE
  8
CSLAYER1
  6
CONTINUOUS
 62
     7
 10
194.000000
 20
251.000000
 11
194.000000
 21
278.000000
  0
ARC
  8
CSLAYER1
  6
CONTINUOUS
 62
     7
 10
192.500000
 20
278.000000
 40
1.500000
 50
-0.000000
 51
180.000000
  0
ARC
  8
CSLAYER1
  6
CONTINUOUS
 62
     7
 10
192.500000
 20
251.000000
 40
1.500000
 50
180.000000
 51
360.000000
  0
LINE
  8
CSLAYER1
  6
CONTINUOUS
 62
     7
 10
197.000000
 20
251.000000
 11
197.000000
 21
278.000000
  0
LINE
  8
CSLAYER1
  6
CONTINUOUS
 62
     7
 10
200.000000
 20
251.000000
 11
200.000000
 21
278.000000
  0
ARC
  8
CSLAYER1
  6
CONTINUOUS
 62
     7
 10
198.500000
 20
278.000000
 40
1.500000
 50
-0.000000
 51
180.000000
  0
ARC
  8
CSLAYER1
  6
CONTINUOUS
 62
     7
 10
198.500000
 20
251.000000
 40
1.500000
 50
180.000000
 51
360.000000
  0
LINE
  8
CSLAYER1
  6
CONTINUOUS
 62
     7
 10
203.000000
 20
251.000000
 11
203.000000
 21
278.000000
  0
LINE
  8
CSLAYER1
  6
CONTINUOUS
 62
     7
 10
206.000000
 20
251.000000
 11
206.000000
 21
278.000000
  0
ARC
  8
CSLAYER1
  6
CONTINUOUS
 62
     7
 10
204.500000
 20
278.000000
 40
1.500000
 50
-0.000000
 51
180.000000
  0
ARC
  8
CSLAYER1
  6
CONTINUOUS
 62
     7
 10
204.500000
 20
251.000000
 40
1.500000
 50
180.000000
 51
360.000000
  0
LINE
  8
CSLAYER1
  6
CONTINUOUS
 62
     7
 10
209.000000
 20
251.000000
 11
209.000000
 21
278.000000
  0
LINE
  8
CSLAYER1
  6
CONTINUOUS
 62
     7
 10
212.000000
 20
251.000000
 11
212.000000
 21
278.000000
  0
ARC
  8
CSLAYER1
  6
CONTINUOUS
 62
     7
 10
210.500000
 20
278.000000
 40
1.500000
 50
-0.000000
 51
180.000000
  0
ARC
  8
CSLAYER1
  6
CONTINUOUS
 62
     7
 10
210.500000
 20
251.000000
 40
1.500000
 50
180.000000
 51
360.000000
  0
LINE
  8
CSLAYER1
  6
CONTINUOUS
 62
     7
 10
215.000000
 20
251.000000
 11
215.000000
 21
278.000000
  0
LINE
  8
CSLAYER1
  6
CONTINUOUS
 62
     7
 10
218.000000
 20
251.000000
 11
218.000000
 21
278.000000
  0
ARC
  8
CSLAYER1
  6
CONTINUOUS
 62
     7
 10
216.500000
 20
278.000000
 40
1.500000
 50
-0.000000
 51
180.000000
  0
ARC
  8
CSLAYER1
  6
CONTINUOUS
 62
     7
 10
216.500000
 20
251.000000
 40
1.500000
 50
180.000000
 51
360.000000
  0
LINE
  8
CSLAYER1
  6
CONTINUOUS
 62
     7
 10
221.000000
 20
251.000000
 11
221.000000
 21
278.000000
  0
LINE
  8
CSLAYER1
  6
CONTINUOUS
 62
     7
 10
224.000000
 20
251.000000
 11
224.000000
 21
278.000000
  0
ARC
  8
CSLAYER1
  6
CONTINUOUS
 62
     7
 10
222.500000
 20
278.000000
 40
1.500000
 50
-0.000000
 51
180.000000
  0
ARC
  8
CSLAYER1
  6
CONTINUOUS
 62
     7
 10
222.500000
 20
251.000000
 40
1.500000
 50
180.000000
 51
360.000000
  0
LINE
  8
CSLAYER1
  6
CONTINUOUS
 62
     7
 10
227.000000
 20
251.000000
 11
227.000000
 21
278.000000
  0
LINE
  8
CSLAYER1
  6
CONTINUOUS
 62
     7
 10
230.000000
 20
251.000000
 11
230.000000
 21
278.000000
  0
ARC
  8
CSLAYER1
  6
CONTINUOUS
 62
     7
 10
228.500000
 20
278.000000
 40
1.500000
 50
-0.000000
 51
180.000000
  0
ARC
  8
CSLAYER1
  6
CONTINUOUS
 62
     7
 10
228.500000
 20
251.000000
 40
1.500000
 50
180.000000
 51
360.000000
  0
LINE
  8
CSLAYER1
  6
CONTINUOUS
 62
     7
 10
233.000000
 20
251.000000
 11
233.000000
 21
278.000000
  0
LINE
  8
CSLAYER1
  6
CONTINUOUS
 62
     7
 10
236.000000
 20
251.000000
 11
236.000000
 21
278.000000
  0
ARC
  8
CSLAYER1
  6
CONTINUOUS
 62
     7
 10
234.500000
 20
278.000000
 40
1.500000
 50
-0.000000
 51
180.000000
  0
ARC
  8
CSLAYER1
  6
CONTINUOUS
 62
     7
 10
234.500000
 20
251.000000
 40
1.500000
 50
180.000000
 51
360.000000
  0
LINE
  8
CSLAYER1
  6
CONTINUOUS
 62
     7
 10
239.000000
 20
251.000000
 11
239.000000
 21
278.000000
  0
LINE
  8
CSLAYER1
  6
CONTINUOUS
 62
     7
 10
242.000000
 20
251.000000
 11
242.000000
 21
278.000000
  0
ARC
  8
CSLAYER1
  6
CONTINUOUS
 62
     7
 10
240.500000
 20
278.000000
 40
1.500000
 50
-0.000000
 51
180.000000
  0
ARC
  8
CSLAYER1
  6
CONTINUOUS
 62
     7
 10
240.500000
 20
251.000000
 40
1.500000
 50
180.000000
 51
360.000000
  0
LINE
  8
CSLAYER1
  6
CONTINUOUS
 62
     7
 10
245.000000
 20
251.000000
 11
245.000000
 21
278.000000
  0
LINE
  8
CSLAYER1
  6
CONTINUOUS
 62
     7
 10
248.000000
 20
251.000000
 11
248.000000
 21
278.000000
  0
ARC
  8
CSLAYER1
  6
CONTINUOUS
 62
     7
 10
246.500000
 20
278.000000
 40
1.500000
 50
-0.000000
 51
180.000000
  0
ARC
  8
CSLAYER1
  6
CONTINUOUS
 62
     7
 10
246.500000
 20
251.000000
 40
1.500000
 50
180.000000
 51
360.000000
  0
LINE
  8
CSLAYER1
  6
CONTINUOUS
 62
     7
 10
145.500000
 20
283.500000
 11
286.500000
 21
283.500000
  0
LINE
  8
CSLAYER1
  6
DASHED
 62
     3
 10
144.500000
 20
244.500000
 11
286.500000
 21
244.500000
  0
LINE
  8
CSLAYER1
  6
CONTINUOUS
 62
     7
 10
285.500000
 20
283.500000
 11
286.500000
 21
282.500000
  0
LINE
  8
CSLAYER1
  6
CONTINUOUS
 62
     7
 10
286.500000
 20
283.500000
 11
288.000000
 21
283.500000
  0
LINE
  8
CSLAYER1
  6
CONTINUOUS
 62
     7
 10
145.500000
 20
283.500000
 11
144.500000
 21
282.500000
  0
LINE
  8
CSLAYER1
  6
CONTINUOUS
 62
     6
 10
288.000000
 20
231.500000
 11
288.000000
 21
62.500000
  0
LINE
  8
CSLAYER1
  6
CONTINUOUS
 62
     6
 10
144.500000
 20
233.000000
 11
286.500000
 21
233.000000
  0
LINE
  8
CSLAYER1
  6
CONTINUOUS
 62
     7
 10
144.500000
 20
63.500000
 11
144.500000
 21
233.000000
  0
LINE
  8
CSLAYER1
  6
CONTINUOUS
 62
     7
 10
288.000000
 20
62.500000
 11
145.500000
 21
62.500000
  0
LINE
  8
CSLAYER1
  6
CONTINUOUS
 62
     7
 10
286.500000
 20
233.000000
 11
286.500000
 21
231.500000
  0
LINE
  8
CSLAYER1
  6
CONTINUOUS
 62
     7
 10
288.000000
 20
231.500000
 11
286.500000
 21
231.500000
  0
LINE
  8
CSLAYER1
  6
DASHED
 62
     3
 10
286.500000
 20
231.500000
 11
286.500000
 21
62.500000
  0
LINE
  8
CSLAYER1
  6
DASHED
 62
     3
 10
286.500000
 20
231.500000
 11
144.500000
 21
231.500000
  0
LINE
  8
CSLAYER1
  6
CONTINUOUS
 62
     7
 10
161.000000
 20
139.000000
 11
161.000000
 21
166.000000
  0
LINE
  8
CSLAYER1
  6
CONTINUOUS
 62
     7
 10
164.000000
 20
139.000000
 11
164.000000
 21
166.000000
  0
ARC
  8
CSLAYER1
  6
CONTINUOUS
 62
     7
 10
162.500000
 20
166.000000
 40
1.500000
 50
-0.000000
 51
180.000000
  0
ARC
  8
CSLAYER1
  6
CONTINUOUS
 62
     7
 10
162.500000
 20
139.000000
 40
1.500000
 50
180.000000
 51
360.000000
  0
LINE
  8
CSLAYER1
  6
CONTINUOUS
 62
     7
 10
167.000000
 20
139.000000
 11
167.000000
 21
166.000000
  0
LINE
  8
CSLAYER1
  6
CONTINUOUS
 62
     7
 10
170.000000
 20
139.000000
 11
170.000000
 21
166.000000
  0
ARC
  8
CSLAYER1
  6
CONTINUOUS
 62
     7
 10
168.500000
 20
166.000000
 40
1.500000
 50
-0.000000
 51
180.000000
  0
ARC
  8
CSLAYER1
  6
CONTINUOUS
 62
     7
 10
168.500000
 20
139.000000
 40
1.500000
 50
180.000000
 51
360.000000
  0
LINE
  8
CSLAYER1
  6
CONTINUOUS
 62
     7
 10
173.000000
 20
139.000000
 11
173.000000
 21
166.000000
  0
LINE
  8
CSLAYER1
  6
CONTINUOUS
 62
     7
 10
176.000000
 20
139.000000
 11
176.000000
 21
166.000000
  0
ARC
  8
CSLAYER1
  6
CONTINUOUS
 62
     7
 10
174.500000
 20
166.000000
 40
1.500000
 50
-0.000000
 51
180.000000
  0
ARC
  8
CSLAYER1
  6
CONTINUOUS
 62
     7
 10
174.500000
 20
139.000000
 40
1.500000
 50
180.000000
 51
360.000000
  0
LINE
  8
CSLAYER1
  6
CONTINUOUS
 62
     7
 10
179.000000
 20
139.000000
 11
179.000000
 21
166.000000
  0
LINE
  8
CSLAYER1
  6
CONTINUOUS
 62
     7
 10
182.000000
 20
139.000000
 11
182.000000
 21
166.000000
  0
ARC
  8
CSLAYER1
  6
CONTINUOUS
 62
     7
 10
180.500000
 20
166.000000
 40
1.500000
 50
-0.000000
 51
180.000000
  0
ARC
  8
CSLAYER1
  6
CONTINUOUS
 62
     7
 10
180.500000
 20
139.000000
 40
1.500000
 50
180.000000
 51
360.000000
  0
LINE
  8
CSLAYER1
  6
CONTINUOUS
 62
     7
 10
185.000000
 20
139.000000
 11
185.000000
 21
166.000000
  0
LINE
  8
CSLAYER1
  6
CONTINUOUS
 62
     7
 10
188.000000
 20
139.000000
 11
188.000000
 21
166.000000
  0
ARC
  8
CSLAYER1
  6
CONTINUOUS
 62
     7
 10
186.500000
 20
166.000000
 40
1.500000
 50
-0.000000
 51
180.000000
  0
ARC
  8
CSLAYER1
  6
CONTINUOUS
 62
     7
 10
186.500000
 20
139.000000
 40
1.500000
 50
180.000000
 51
360.000000
  0
LINE
  8
CSLAYER1
  6
CONTINUOUS
 62
     7
 10
191.000000
 20
139.000000
 11
191.000000
 21
166.000000
  0
LINE
  8
CSLAYER1
  6
CONTINUOUS
 62
     7
 10
194.000000
 20
139.000000
 11
194.000000
 21
166.000000
  0
ARC
  8
CSLAYER1
  6
CONTINUOUS
 62
     7
 10
192.500000
 20
166.000000
 40
1.500000
 50
-0.000000
 51
180.000000
  0
ARC
  8
CSLAYER1
  6
CONTINUOUS
 62
     7
 10
192.500000
 20
139.000000
 40
1.500000
 50
180.000000
 51
360.000000
  0
LINE
  8
CSLAYER1
  6
CONTINUOUS
 62
     7
 10
197.000000
 20
139.000000
 11
197.000000
 21
166.000000
  0
LINE
  8
CSLAYER1
  6
CONTINUOUS
 62
     7
 10
200.000000
 20
139.000000
 11
200.000000
 21
166.000000
  0
ARC
  8
CSLAYER1
  6
CONTINUOUS
 62
     7
 10
198.500000
 20
166.000000
 40
1.500000
 50
-0.000000
 51
180.000000
  0
ARC
  8
CSLAYER1
  6
CONTINUOUS
 62
     7
 10
198.500000
 20
139.000000
 40
1.500000
 50
180.000000
 51
360.000000
  0
LINE
  8
CSLAYER1
  6
CONTINUOUS
 62
     7
 10
203.000000
 20
139.000000
 11
203.000000
 21
166.000000
  0
LINE
  8
CSLAYER1
  6
CONTINUOUS
 62
     7
 10
206.000000
 20
139.000000
 11
206.000000
 21
166.000000
  0
ARC
  8
CSLAYER1
  6
CONTINUOUS
 62
     7
 10
204.500000
 20
166.000000
 40
1.500000
 50
-0.000000
 51
180.000000
  0
ARC
  8
CSLAYER1
  6
CONTINUOUS
 62
     7
 10
204.500000
 20
139.000000
 40
1.500000
 50
180.000000
 51
360.000000
  0
LINE
  8
CSLAYER1
  6
CONTINUOUS
 62
     7
 10
209.000000
 20
139.000000
 11
209.000000
 21
166.000000
  0
LINE
  8
CSLAYER1
  6
CONTINUOUS
 62
     7
 10
212.000000
 20
139.000000
 11
212.000000
 21
166.000000
  0
ARC
  8
CSLAYER1
  6
CONTINUOUS
 62
     7
 10
210.500000
 20
166.000000
 40
1.500000
 50
-0.000000
 51
180.000000
  0
ARC
  8
CSLAYER1
  6
CONTINUOUS
 62
     7
 10
210.500000
 20
139.000000
 40
1.500000
 50
180.000000
 51
360.000000
  0
LINE
  8
CSLAYER1
  6
CONTINUOUS
 62
     7
 10
215.000000
 20
139.000000
 11
215.000000
 21
166.000000
  0
LINE
  8
CSLAYER1
  6
CONTINUOUS
 62
     7
 10
218.000000
 20
139.000000
 11
218.000000
 21
166.000000
  0
ARC
  8
CSLAYER1
  6
CONTINUOUS
 62
     7
 10
216.500000
 20
166.000000
 40
1.500000
 50
-0.000000
 51
180.000000
  0
ARC
  8
CSLAYER1
  6
CONTINUOUS
 62
     7
 10
216.500000
 20
139.000000
 40
1.500000
 50
180.000000
 51
360.000000
  0
LINE
  8
CSLAYER1
  6
CONTINUOUS
 62
     7
 10
221.000000
 20
139.000000
 11
221.000000
 21
166.000000
  0
LINE
  8
CSLAYER1
  6
CONTINUOUS
 62
     7
 10
224.000000
 20
139.000000
 11
224.000000
 21
166.000000
  0
ARC
  8
CSLAYER1
  6
CONTINUOUS
 62
     7
 10
222.500000
 20
166.000000
 40
1.500000
 50
-0.000000
 51
180.000000
  0
ARC
  8
CSLAYER1
  6
CONTINUOUS
 62
     7
 10
222.500000
 20
139.000000
 40
1.500000
 50
180.000000
 51
360.000000
  0
LINE
  8
CSLAYER1
  6
CONTINUOUS
 62
     7
 10
227.000000
 20
139.000000
 11
227.000000
 21
166.000000
  0
LINE
  8
CSLAYER1
  6
CONTINUOUS
 62
     7
 10
230.000000
 20
139.000000
 11
230.000000
 21
166.000000
  0
ARC
  8
CSLAYER1
  6
CONTINUOUS
 62
     7
 10
228.500000
 20
166.000000
 40
1.500000
 50
-0.000000
 51
180.000000
  0
ARC
  8
CSLAYER1
  6
CONTINUOUS
 62
     7
 10
228.500000
 20
139.000000
 40
1.500000
 50
180.000000
 51
360.000000
  0
LINE
  8
CSLAYER1
  6
CONTINUOUS
 62
     7
 10
233.000000
 20
139.000000
 11
233.000000
 21
166.000000
  0
LINE
  8
CSLAYER1
  6
CONTINUOUS
 62
     7
 10
236.000000
 20
139.000000
 11
236.000000
 21
166.000000
  0
ARC
  8
CSLAYER1
  6
CONTINUOUS
 62
     7
 10
234.500000
 20
166.000000
 40
1.500000
 50
-0.000000
 51
180.000000
  0
ARC
  8
CSLAYER1
  6
CONTINUOUS
 62
     7
 10
234.500000
 20
139.000000
 40
1.500000
 50
180.000000
 51
360.000000
  0
LINE
  8
CSLAYER1
  6
CONTINUOUS
 62
     7
 10
239.000000
 20
139.000000
 11
239.000000
 21
166.000000
  0
LINE
  8
CSLAYER1
  6
CONTINUOUS
 62
     7
 10
242.000000
 20
139.000000
 11
242.000000
 21
166.000000
  0
ARC
  8
CSLAYER1
  6
CONTINUOUS
 62
     7
 10
240.500000
 20
166.000000
 40
1.500000
 50
-0.000000
 51
180.000000
  0
ARC
  8
CSLAYER1
  6
CONTINUOUS
 62
     7
 10
240.500000
 20
139.000000
 40
1.500000
 50
180.000000
 51
360.000000
  0
LINE
  8
CSLAYER1
  6
CONTINUOUS
 62
     7
 10
245.000000
 20
139.000000
 11
245.000000
 21
166.000000
  0
LINE
  8
CSLAYER1
  6
CONTINUOUS
 62
     7
 10
248.000000
 20
139.000000
 11
248.000000
 21
166.000000
  0
ARC
  8
CSLAYER1
  6
CONTINUOUS
 62
     7
 10
246.500000
 20
166.000000
 40
1.500000
 50
-0.000000
 51
180.000000
  0
ARC
  8
CSLAYER1
  6
CONTINUOUS
 62
     7
 10
246.500000
 20
139.000000
 40
1.500000
 50
180.000000
 51
360.000000
  0
LINE
  8
CSLAYER1
  6
CONTINUOUS
 62
     7
 10
251.000000
 20
139.000000
 11
251.000000
 21
166.000000
  0
LINE
  8
CSLAYER1
  6
CONTINUOUS
 62
     7
 10
254.000000
 20
139.000000
 11
254.000000
 21
166.000000
  0
ARC
  8
CSLAYER1
  6
CONTINUOUS
 62
     7
 10
252.500000
 20
166.000000
 40
1.500000
 50
-0.000000
 51
180.000000
  0
ARC
  8
CSLAYER1
  6
CONTINUOUS
 62
     7
 10
252.500000
 20
139.000000
 40
1.500000
 50
180.000000
 51
360.000000
  0
LINE
  8
CSLAYER1
  6
CONTINUOUS
 62
     7
 10
257.000000
 20
139.000000
 11
257.000000
 21
166.000000
  0
LINE
  8
CSLAYER1
  6
CONTINUOUS
 62
     7
 10
260.000000
 20
139.000000
 11
260.000000
 21
166.000000
  0
ARC
  8
CSLAYER1
  6
CONTINUOUS
 62
     7
 10
258.500000
 20
166.000000
 40
1.500000
 50
-0.000000
 51
180.000000
  0
ARC
  8
CSLAYER1
  6
CONTINUOUS
 62
     7
 10
258.500000
 20
139.000000
 40
1.500000
 50
180.000000
 51
360.000000
  0
LINE
  8
CSLAYER1
  6
CONTINUOUS
 62
     7
 10
263.000000
 20
139.000000
 11
263.000000
 21
166.000000
  0
LINE
  8
CSLAYER1
  6
CONTINUOUS
 62
     7
 10
266.000000
 20
139.000000
 11
266.000000
 21
166.000000
  0
ARC
  8
CSLAYER1
  6
CONTINUOUS
 62
     7
 10
264.500000
 20
166.000000
 40
1.500000
 50
-0.000000
 51
180.000000
  0
ARC
  8
CSLAYER1
  6
CONTINUOUS
 62
     7
 10
264.500000
 20
139.000000
 40
1.500000
 50
180.000000
 51
360.000000
  0
LINE
  8
CSLAYER1
  6
CONTINUOUS
 62
     7
 10
269.000000
 20
139.000000
 11
269.000000
 21
166.000000
  0
LINE
  8
CSLAYER1
  6
CONTINUOUS
 62
     7
 10
272.000000
 20
139.000000
 11
272.000000
 21
166.000000
  0
ARC
  8
CSLAYER1
  6
CONTINUOUS
 62
     7
 10
270.500000
 20
166.000000
 40
1.500000
 50
-0.000000
 51
180.000000
  0
ARC
  8
CSLAYER1
  6
CONTINUOUS
 62
     7
 10
270.500000
 20
139.000000
 40
1.500000
 50
180.000000
 51
360.000000
  0
LINE
  8
CSLAYER1
  6
CONTINUOUS
 62
     7
 10
275.000000
 20
139.000000
 11
275.000000
 21
166.000000
  0
LINE
  8
CSLAYER1
  6
CONTINUOUS
 62
     7
 10
278.000000
 20
139.000000
 11
278.000000
 21
166.000000
  0
ARC
  8
CSLAYER1
  6
CONTINUOUS
 62
     7
 10
276.500000
 20
166.000000
 40
1.500000
 50
-0.000000
 51
180.000000
  0
ARC
  8
CSLAYER1
  6
CONTINUOUS
 62
     7
 10
276.500000
 20
139.000000
 40
1.500000
 50
180.000000
 51
360.000000
  0
LINE
  8
CSLAYER1
  6
CONTINUOUS
 62
     7
 10
251.000000
 20
126.000000
 11
251.000000
 21
99.000000
  0
LINE
  8
CSLAYER1
  6
CONTINUOUS
 62
     7
 10
254.000000
 20
126.000000
 11
254.000000
 21
99.000000
  0
ARC
  8
CSLAYER1
  6
CONTINUOUS
 62
     7
 10
252.500000
 20
99.000000
 40
1.500000
 50
180.000000
 51
360.000000
  0
ARC
  8
CSLAYER1
  6
CONTINUOUS
 62
     7
 10
252.500000
 20
126.000000
 40
1.500000
 50
0.000000
 51
180.000000
  0
LINE
  8
CSLAYER1
  6
CONTINUOUS
 62
     7
 10
257.000000
 20
126.000000
 11
257.000000
 21
99.000000
  0
LINE
  8
CSLAYER1
  6
CONTINUOUS
 62
     7
 10
260.000000
 20
126.000000
 11
260.000000
 21
99.000000
  0
ARC
  8
CSLAYER1
  6
CONTINUOUS
 62
     7
 10
258.500000
 20
99.000000
 40
1.500000
 50
180.000000
 51
360.000000
  0
ARC
  8
CSLAYER1
  6
CONTINUOUS
 62
     7
 10
258.500000
 20
126.000000
 40
1.500000
 50
0.000000
 51
180.000000
  0
LINE
  8
CSLAYER1
  6
CONTINUOUS
 62
     7
 10
263.000000
 20
126.000000
 11
263.000000
 21
99.000000
  0
LINE
  8
CSLAYER1
  6
CONTINUOUS
 62
     7
 10
266.000000
 20
126.000000
 11
266.000000
 21
99.000000
  0
ARC
  8
CSLAYER1
  6
CONTINUOUS
 62
     7
 10
264.500000
 20
99.000000
 40
1.500000
 50
-180.000000
 51
0.000000
  0
ARC
  8
CSLAYER1
  6
CONTINUOUS
 62
     7
 10
264.500000
 20
126.000000
 40
1.500000
 50
0.000000
 51
180.000000
  0
LINE
  8
CSLAYER1
  6
CONTINUOUS
 62
     7
 10
269.000000
 20
126.000000
 11
269.000000
 21
99.000000
  0
LINE
  8
CSLAYER1
  6
CONTINUOUS
 62
     7
 10
272.000000
 20
126.000000
 11
272.000000
 21
99.000000
  0
ARC
  8
CSLAYER1
  6
CONTINUOUS
 62
     7
 10
270.500000
 20
99.000000
 40
1.500000
 50
-180.000000
 51
0.000000
  0
ARC
  8
CSLAYER1
  6
CONTINUOUS
 62
     7
 10
270.500000
 20
126.000000
 40
1.500000
 50
0.000000
 51
180.000000
  0
LINE
  8
CSLAYER1
  6
CONTINUOUS
 62
     7
 10
275.000000
 20
126.000000
 11
275.000000
 21
99.000000
  0
LINE
  8
CSLAYER1
  6
CONTINUOUS
 62
     7
 10
278.000000
 20
126.000000
 11
278.000000
 21
99.000000
  0
ARC
  8
CSLAYER1
  6
CONTINUOUS
 62
     7
 10
276.500000
 20
99.000000
 40
1.500000
 50
-180.000000
 51
0.000000
  0
ARC
  8
CSLAYER1
  6
CONTINUOUS
 62
     7
 10
276.500000
 20
126.000000
 40
1.500000
 50
0.000000
 51
180.000000
  0
CIRCLE
  8
CSLAYER1
  6
CONTINUOUS
 62
     7
 10
202.500000
 20
104.000000
 40
3.000000
  0
CIRCLE
  8
CSLAYER1
  6
CONTINUOUS
 62
     7
 10
192.500000
 20
104.000000
 40
3.000000
  0
CIRCLE
  8
CSLAYER1
  6
CONTINUOUS
 62
     7
 10
182.500000
 20
104.000000
 40
3.000000
  0
CIRCLE
  8
CSLAYER1
  6
CONTINUOUS
 62
     7
 10
166.500000
 20
87.500000
 40
3.000000
  0
CIRCLE
  8
CSLAYER1
  6
CONTINUOUS
 62
     7
 10
190.500000
 20
81.500000
 40
3.000000
  0
CIRCLE
  8
CSLAYER1
  6
CONTINUOUS
 62
     7
 10
203.500000
 20
85.500000
 40
3.000000
  0
CIRCLE
  8
CSLAYER1
  6
CONTINUOUS
 62
     7
 10
212.500000
 20
85.500000
 40
3.000000
  0
TEXT
  8
CSLAYER1
 62
     3
 10
180.000000
 20
107.499985
 40
3.500000
 41
0.857143
  1
CL
 50
0.000000
 51
0.000000
  7
FX_FONT
 72
     5
 11
185.000000
 21
107.499985
  0
TEXT
  8
CSLAYER1
 62
     3
 10
188.767944
 20
107.499985
 40
3.500000
 41
0.803571
  1
OFS
 50
0.000000
 51
0.000000
  7
FX_FONT
 72
     5
 11
196.267944
 21
107.499985
  0
TEXT
  8
CSLAYER1
 62
     3
 10
198.767944
 20
107.499985
 40
3.500000
 41
0.803571
  1
SPD
 50
0.000000
 51
0.000000
  7
FX_FONT
 72
     5
 11
206.267944
 21
107.499985
  0
TEXT
  8
CSLAYER1
 62
     3
 10
164.000000
 20
90.999977
 40
3.500000
 41
0.857143
  1
SS
 50
0.000000
 51
0.000000
  7
FX_FONT
 72
     5
 11
169.000000
 21
90.999977
  0
TEXT
  8
CSLAYER1
 62
     3
 10
188.000000
 20
84.999977
 40
3.500000
 41
0.857143
  1
SW
 50
0.000000
 51
0.000000
  7
FX_FONT
 72
     5
 11
193.000000
 21
84.999977
  0
TEXT
  8
CSLAYER1
 62
     3
 10
201.000000
 20
88.999977
 40
3.500000
 41
0.857143
  1
PH
 50
0.000000
 51
0.000000
  7
FX_FONT
 72
     5
 11
206.000000
 21
88.999977
  0
TEXT
  8
CSLAYER1
 62
     3
 10
210.000000
 20
88.999977
 40
3.500000
 41
0.857143
  1
GA
 50
0.000000
 51
0.000000
  7
FX_FONT
 72
     5
 11
215.000000
 21
88.999977
  0
LINE
  8
CSLAYER1
  6
CONTINUOUS
 62
     7
 10
144.500000
 20
63.500000
 11
145.500000
 21
62.500000
  0
LINE
  8
CSLAYER1
  6
CONTINUOUS
 62
     7
 10
286.500000
 20
10.000000
 11
145.500000
 21
10.000000
  0
LINE
  8
CSLAYER1
  6
CONTINUOUS
 62
     7
 10
143.500000
 20
12.000000
 11
143.500000
 21
50.000000
  0
LINE
  8
CSLAYER1
  6
CONTINUOUS
 62
     7
 10
143.500000
 20
50.000000
 11
165.500000
 21
50.000000
  0
LINE
  8
CSLAYER1
  6
CONTINUOUS
 62
     7
 10
286.500000
 20
49.000000
 11
286.500000
 21
37.000000
  0
LINE
  8
CSLAYER1
  6
CONTINUOUS
 62
     7
 10
145.500000
 20
50.000000
 11
145.500000
 21
10.000000
  0
LINE
  8
CSLAYER1
  6
CONTINUOUS
 62
     7
 10
286.500000
 20
49.000000
 11
285.500000
 21
50.000000
  0
LINE
  8
CSLAYER1
  6
CENTER
 62
     3
 10
278.500000
 20
15.500000
 11
278.500000
 21
24.500000
  0
LINE
  8
CSLAYER1
  6
CENTER
 62
     3
 10
283.000000
 20
20.000000
 11
274.000000
 21
20.000000
  0
CIRCLE
  8
CSLAYER1
  6
CONTINUOUS
 62
     3
 10
278.500000
 20
20.000000
 40
2.000000
  0
CIRCLE
  8
CSLAYER1
  6
CONTINUOUS
 62
     6
 10
278.500000
 20
20.000000
 40
1.600000
  0
LINE
  8
CSLAYER1
  6
CENTER
 62
     3
 10
278.500000
 20
40.500000
 11
278.500000
 21
49.500000
  0
LINE
  8
CSLAYER1
  6
CENTER
 62
     3
 10
283.000000
 20
45.000000
 11
274.000000
 21
45.000000
  0
CIRCLE
  8
CSLAYER1
  6
CONTINUOUS
 62
     3
 10
278.500000
 20
45.000000
 40
2.000000
  0
CIRCLE
  8
CSLAYER1
  6
CONTINUOUS
 62
     6
 10
278.500000
 20
45.000000
 40
1.600000
  0
LINE
  8
CSLAYER1
  6
CENTER
 62
     3
 10
153.500000
 20
40.500000
 11
153.500000
 21
49.500000
  0
LINE
  8
CSLAYER1
  6
CENTER
 62
     3
 10
158.000000
 20
45.000000
 11
149.000000
 21
45.000000
  0
CIRCLE
  8
CSLAYER1
  6
CONTINUOUS
 62
     3
 10
153.500000
 20
45.000000
 40
2.000000
  0
CIRCLE
  8
CSLAYER1
  6
CONTINUOUS
 62
     6
 10
153.500000
 20
45.000000
 40
1.600000
  0
LINE
  8
CSLAYER1
  6
CENTER
 62
     3
 10
153.500000
 20
15.500000
 11
153.500000
 21
24.500000
  0
LINE
  8
CSLAYER1
  6
CENTER
 62
     3
 10
158.000000
 20
20.000000
 11
149.000000
 21
20.000000
  0
CIRCLE
  8
CSLAYER1
  6
CONTINUOUS
 62
     3
 10
153.500000
 20
20.000000
 40
2.000000
  0
CIRCLE
  8
CSLAYER1
  6
CONTINUOUS
 62
     6
 10
153.500000
 20
20.000000
 40
1.600000
  0
LINE
  8
CSLAYER1
  6
DASHED
 62
     3
 10
286.500000
 20
12.000000
 11
145.500000
 21
12.000000
  0
LINE
  8
CSLAYER1
  6
CONTINUOUS
 62
     7
 10
165.500000
 20
48.000000
 11
167.500000
 21
48.000000
  0
LINE
  8
CSLAYER1
  6
CONTINUOUS
 62
     7
 10
259.500000
 20
48.000000
 11
259.500000
 21
50.000000
  0
LINE
  8
CSLAYER1
  6
CONTINUOUS
 62
     7
 10
257.500000
 20
48.000000
 11
257.500000
 21
50.000000
  0
LINE
  8
CSLAYER1
  6
CONTINUOUS
 62
     7
 10
245.500000
 20
48.000000
 11
245.500000
 21
50.000000
  0
LINE
  8
CSLAYER1
  6
CONTINUOUS
 62
     7
 10
247.500000
 20
48.000000
 11
247.500000
 21
50.000000
  0
LINE
  8
CSLAYER1
  6
CONTINUOUS
 62
     7
 10
179.500000
 20
48.000000
 11
179.500000
 21
50.000000
  0
LINE
  8
CSLAYER1
  6
CONTINUOUS
 62
     7
 10
177.500000
 20
48.000000
 11
177.500000
 21
50.000000
  0
LINE
  8
CSLAYER1
  6
CONTINUOUS
 62
     7
 10
165.500000
 20
48.000000
 11
165.500000
 21
50.000000
  0
LINE
  8
CSLAYER1
  6
CONTINUOUS
 62
     7
 10
167.500000
 20
48.000000
 11
167.500000
 21
50.000000
  0
LINE
  8
CSLAYER1
  6
CONTINUOUS
 62
     7
 10
259.500000
 20
50.000000
 11
285.500000
 21
50.000000
  0
LINE
  8
CSLAYER1
  6
CONTINUOUS
 62
     7
 10
247.500000
 20
50.000000
 11
257.500000
 21
50.000000
  0
LINE
  8
CSLAYER1
  6
CONTINUOUS
 62
     7
 10
179.500000
 20
50.000000
 11
245.500000
 21
50.000000
  0
LINE
  8
CSLAYER1
  6
CONTINUOUS
 62
     7
 10
167.500000
 20
50.000000
 11
177.500000
 21
50.000000
  0
LINE
  8
CSLAYER1
  6
CONTINUOUS
 62
     7
 10
284.500000
 20
23.000000
 11
286.500000
 21
23.000000
  0
LINE
  8
CSLAYER1
  6
CONTINUOUS
 62
     7
 10
284.500000
 20
25.000000
 11
286.500000
 21
25.000000
  0
LINE
  8
CSLAYER1
  6
CONTINUOUS
 62
     7
 10
284.500000
 20
37.000000
 11
286.500000
 21
37.000000
  0
LINE
  8
CSLAYER1
  6
CONTINUOUS
 62
     7
 10
284.500000
 20
35.000000
 11
286.500000
 21
35.000000
  0
LINE
  8
CSLAYER1
  6
CONTINUOUS
 62
     7
 10
286.500000
 20
35.000000
 11
286.500000
 21
25.000000
  0
LINE
  8
CSLAYER1
  6
CONTINUOUS
 62
     7
 10
286.500000
 20
23.000000
 11
286.500000
 21
10.000000
  0
LINE
  8
CSLAYER1
  6
CONTINUOUS
 62
     7
 10
286.500000
 20
35.000000
 11
286.500000
 21
25.000000
  0
LINE
  8
CSLAYER1
  6
CONTINUOUS
 62
     7
 10
177.500000
 20
48.000000
 11
179.500000
 21
48.000000
  0
LINE
  8
CSLAYER1
  6
CONTINUOUS
 62
     3
 10
169.500000
 20
48.000000
 11
175.500000
 21
48.000000
  0
LINE
  8
CSLAYER1
  6
CONTINUOUS
 62
     7
 10
245.500000
 20
48.000000
 11
247.500000
 21
48.000000
  0
LINE
  8
CSLAYER1
  6
CONTINUOUS
 62
     7
 10
257.500000
 20
48.000000
 11
259.500000
 21
48.000000
  0
LINE
  8
CSLAYER1
  6
CONTINUOUS
 62
     3
 10
249.500000
 20
48.000000
 11
255.500000
 21
48.000000
  0
ARC
  8
CSLAYER1
  6
CONTINUOUS
 62
     7
 10
145.500000
 20
12.000000
 40
2.000000
 50
180.000000
 51
270.000000
  0
LINE
  8
CSLAYER1
  6
CONTINUOUS
 62
     7
 10
145.500000
 20
12.000000
 11
143.500000
 21
12.000000
  0
LINE
  8
CSLAYER1
  6
CONTINUOUS
 62
     7
 10
284.500000
 20
37.000000
 11
284.500000
 21
35.000000
  0
LINE
  8
CSLAYER1
  6
CONTINUOUS
 62
     7
 10
284.500000
 20
25.000000
 11
284.500000
 21
23.000000
  0
LINE
  8
CSLAYER1
  6
CONTINUOUS
 62
     3
 10
284.500000
 20
33.000000
 11
284.500000
 21
27.000000
  0
LINE
  8
CSLAYER1
  6
CONTINUOUS
 62
     6
 10
318.000000
 20
62.500000
 11
318.000000
 21
231.000000
  0
LINE
  8
CSLAYER1
  6
CONTINUOUS
 62
     6
 10
320.000000
 20
233.000000
 11
358.500000
 21
233.000000
  0
LINE
  8
CSLAYER1
  6
CONTINUOUS
 62
     6
 10
358.500000
 20
233.000000
 11
358.500000
 21
231.500000
  0
LINE
  8
CSLAYER1
  6
CONTINUOUS
 62
     7
 10
318.000000
 20
231.500000
 11
359.500000
 21
231.500000
  0
LINE
  8
CSLAYER1
  6
DASHED
 62
     3
 10
319.500000
 20
231.500000
 11
319.500000
 21
62.500000
  0
LINE
  8
CSLAYER1
  6
CONTINUOUS
 62
     6
 10
357.500000
 20
62.500000
 11
318.000000
 21
62.500000
  0
ARC
  8
CSLAYER1
  6
CONTINUOUS
 62
     7
 10
320.000000
 20
231.000000
 40
2.000000
 50
90.000000
 51
180.000000
  0
LINE
  8
CSLAYER1
  6
CONTINUOUS
 62
     7
 10
358.500000
 20
63.500000
 11
357.500000
 21
62.500000
  0
LINE
  8
CSLAYER1
  6
CONTINUOUS
 62
     7
 10
357.500000
 20
231.500000
 11
358.500000
 21
230.500000
  0
LINE
  8
CSLAYER1
  6
CONTINUOUS
 62
     6
 10
358.500000
 20
231.500000
 11
358.500000
 21
63.500000
  0
CIRCLE
  8
CSLAYER1
  6
CONTINUOUS
 62
     7
 10
339.500000
 20
68.500000
 40
1.500000
  0
LINE
  8
CSLAYER1
  6
CONTINUOUS
 62
     7
 10
351.500000
 20
126.000000
 11
351.500000
 21
99.000000
  0
LINE
  8
CSLAYER1
  6
CONTINUOUS
 62
     7
 10
348.500000
 20
126.000000
 11
348.500000
 21
99.000000
  0
ARC
  8
CSLAYER1
  6
CONTINUOUS
 62
     7
 10
350.000000
 20
99.000000
 40
1.500000
 50
180.000000
 51
360.000000
  0
ARC
  8
CSLAYER1
  6
CONTINUOUS
 62
     7
 10
350.000000
 20
126.000000
 40
1.500000
 50
0.000000
 51
180.000000
  0
LINE
  8
CSLAYER1
  6
CONTINUOUS
 62
     7
 10
345.500000
 20
126.000000
 11
345.500000
 21
99.000000
  0
LINE
  8
CSLAYER1
  6
CONTINUOUS
 62
     7
 10
342.500000
 20
126.000000
 11
342.500000
 21
99.000000
  0
ARC
  8
CSLAYER1
  6
CONTINUOUS
 62
     7
 10
344.000000
 20
99.000000
 40
1.500000
 50
180.000000
 51
360.000000
  0
ARC
  8
CSLAYER1
  6
CONTINUOUS
 62
     7
 10
344.000000
 20
126.000000
 40
1.500000
 50
0.000000
 51
180.000000
  0
LINE
  8
CSLAYER1
  6
CONTINUOUS
 62
     7
 10
339.500000
 20
126.000000
 11
339.500000
 21
99.000000
  0
LINE
  8
CSLAYER1
  6
CONTINUOUS
 62
     7
 10
336.500000
 20
126.000000
 11
336.500000
 21
99.000000
  0
ARC
  8
CSLAYER1
  6
CONTINUOUS
 62
     7
 10
338.000000
 20
99.000000
 40
1.500000
 50
-180.000000
 51
0.000000
  0
ARC
  8
CSLAYER1
  6
CONTINUOUS
 62
     7
 10
338.000000
 20
126.000000
 40
1.500000
 50
0.000000
 51
180.000000
  0
LINE
  8
CSLAYER1
  6
CONTINUOUS
 62
     7
 10
333.500000
 20
126.000000
 11
333.500000
 21
99.000000
  0
LINE
  8
CSLAYER1
  6
CONTINUOUS
 62
     7
 10
330.500000
 20
126.000000
 11
330.500000
 21
99.000000
  0
ARC
  8
CSLAYER1
  6
CONTINUOUS
 62
     7
 10
332.000000
 20
99.000000
 40
1.500000
 50
-180.000000
 51
0.000000
  0
ARC
  8
CSLAYER1
  6
CONTINUOUS
 62
     7
 10
332.000000
 20
126.000000
 40
1.500000
 50
0.000000
 51
180.000000
  0
LINE
  8
CSLAYER1
  6
CONTINUOUS
 62
     7
 10
327.500000
 20
126.000000
 11
327.500000
 21
99.000000
  0
LINE
  8
CSLAYER1
  6
CONTINUOUS
 62
     7
 10
324.500000
 20
126.000000
 11
324.500000
 21
99.000000
  0
ARC
  8
CSLAYER1
  6
CONTINUOUS
 62
     7
 10
326.000000
 20
99.000000
 40
1.500000
 50
-180.000000
 51
0.000000
  0
ARC
  8
CSLAYER1
  6
CONTINUOUS
 62
     7
 10
326.000000
 20
126.000000
 40
1.500000
 50
0.000000
 51
180.000000
  0
LINE
  8
CSLAYER1
  6
CONTINUOUS
 62
     7
 10
351.500000
 20
139.000000
 11
351.500000
 21
166.000000
  0
LINE
  8
CSLAYER1
  6
CONTINUOUS
 62
     7
 10
348.500000
 20
139.000000
 11
348.500000
 21
166.000000
  0
ARC
  8
CSLAYER1
  6
CONTINUOUS
 62
     7
 10
350.000000
 20
166.000000
 40
1.500000
 50
0.000000
 51
180.000000
  0
ARC
  8
CSLAYER1
  6
CONTINUOUS
 62
     7
 10
350.000000
 20
139.000000
 40
1.500000
 50
180.000000
 51
360.000000
  0
LINE
  8
CSLAYER1
  6
CONTINUOUS
 62
     7
 10
345.500000
 20
139.000000
 11
345.500000
 21
166.000000
  0
LINE
  8
CSLAYER1
  6
CONTINUOUS
 62
     7
 10
342.500000
 20
139.000000
 11
342.500000
 21
166.000000
  0
ARC
  8
CSLAYER1
  6
CONTINUOUS
 62
     7
 10
344.000000
 20
166.000000
 40
1.500000
 50
0.000000
 51
180.000000
  0
ARC
  8
CSLAYER1
  6
CONTINUOUS
 62
     7
 10
344.000000
 20
139.000000
 40
1.500000
 50
180.000000
 51
360.000000
  0
LINE
  8
CSLAYER1
  6
CONTINUOUS
 62
     7
 10
339.500000
 20
139.000000
 11
339.500000
 21
166.000000
  0
LINE
  8
CSLAYER1
  6
CONTINUOUS
 62
     7
 10
336.500000
 20
139.000000
 11
336.500000
 21
166.000000
  0
ARC
  8
CSLAYER1
  6
CONTINUOUS
 62
     7
 10
338.000000
 20
166.000000
 40
1.500000
 50
0.000000
 51
180.000000
  0
ARC
  8
CSLAYER1
  6
CONTINUOUS
 62
     7
 10
338.000000
 20
139.000000
 40
1.500000
 50
180.000000
 51
360.000000
  0
LINE
  8
CSLAYER1
  6
CONTINUOUS
 62
     7
 10
333.500000
 20
139.000000
 11
333.500000
 21
166.000000
  0
LINE
  8
CSLAYER1
  6
CONTINUOUS
 62
     7
 10
330.500000
 20
139.000000
 11
330.500000
 21
166.000000
  0
ARC
  8
CSLAYER1
  6
CONTINUOUS
 62
     7
 10
332.000000
 20
166.000000
 40
1.500000
 50
0.000000
 51
180.000000
  0
ARC
  8
CSLAYER1
  6
CONTINUOUS
 62
     7
 10
332.000000
 20
139.000000
 40
1.500000
 50
180.000000
 51
360.000000
  0
LINE
  8
CSLAYER1
  6
CONTINUOUS
 62
     7
 10
327.500000
 20
139.000000
 11
327.500000
 21
166.000000
  0
LINE
  8
CSLAYER1
  6
CONTINUOUS
 62
     7
 10
324.500000
 20
139.000000
 11
324.500000
 21
166.000000
  0
ARC
  8
CSLAYER1
  6
CONTINUOUS
 62
     7
 10
326.000000
 20
166.000000
 40
1.500000
 50
0.000000
 51
180.000000
  0
ARC
  8
CSLAYER1
  6
CONTINUOUS
 62
     7
 10
326.000000
 20
139.000000
 40
1.500000
 50
180.000000
 51
360.000000
  0
LINE
  8
CSLAYER1
  6
CONTINUOUS
 62
     6
 10
103.500000
 20
62.500000
 11
103.500000
 21
231.000000
  0
LINE
  8
CSLAYER1
  6
CONTINUOUS
 62
     6
 10
101.500000
 20
233.000000
 11
63.000000
 21
233.000000
  0
LINE
  8
CSLAYER1
  6
CONTINUOUS
 62
     6
 10
63.000000
 20
233.000000
 11
63.000000
 21
231.500000
  0
LINE
  8
CSLAYER1
  6
CONTINUOUS
 62
     6
 10
102.000000
 20
231.500000
 11
63.000000
 21
231.500000
  0
LINE
  8
CSLAYER1
  6
CONTINUOUS
 62
     6
 10
102.000000
 20
231.500000
 11
102.000000
 21
62.500000
  0
LINE
  8
CSLAYER1
  6
CONTINUOUS
 62
     6
 10
102.000000
 20
62.500000
 11
103.500000
 21
62.500000
  0
ARC
  8
CSLAYER1
  6
CONTINUOUS
 62
     7
 10
101.500000
 20
231.000000
 40
2.000000
 50
0.000000
 51
90.000000
  0
ARC
  8
CSLAYER1
  6
CONTINUOUS
 62
     7
 10
145.500000
 20
282.500000
 40
2.000000
 50
90.000000
 51
180.000000
  0
LINE
  8
CSLAYER1
  6
CONTINUOUS
 62
     7
 10
161.000000
 20
179.000000
 11
161.000000
 21
206.000000
  0
LINE
  8
CSLAYER1
  6
CONTINUOUS
 62
     7
 10
164.000000
 20
179.000000
 11
164.000000
 21
206.000000
  0
ARC
  8
CSLAYER1
  6
CONTINUOUS
 62
     7
 10
162.500000
 20
206.000000
 40
1.500000
 50
-0.000000
 51
180.000000
  0
ARC
  8
CSLAYER1
  6
CONTINUOUS
 62
     7
 10
162.500000
 20
179.000000
 40
1.500000
 50
180.000000
 51
360.000000
  0
LINE
  8
CSLAYER1
  6
CONTINUOUS
 62
     7
 10
167.000000
 20
179.000000
 11
167.000000
 21
206.000000
  0
LINE
  8
CSLAYER1
  6
CONTINUOUS
 62
     7
 10
170.000000
 20
179.000000
 11
170.000000
 21
206.000000
  0
ARC
  8
CSLAYER1
  6
CONTINUOUS
 62
     7
 10
168.500000
 20
206.000000
 40
1.500000
 50
-0.000000
 51
180.000000
  0
ARC
  8
CSLAYER1
  6
CONTINUOUS
 62
     7
 10
168.500000
 20
179.000000
 40
1.500000
 50
180.000000
 51
360.000000
  0
LINE
  8
CSLAYER1
  6
CONTINUOUS
 62
     7
 10
173.000000
 20
179.000000
 11
173.000000
 21
206.000000
  0
LINE
  8
CSLAYER1
  6
CONTINUOUS
 62
     7
 10
176.000000
 20
179.000000
 11
176.000000
 21
206.000000
  0
ARC
  8
CSLAYER1
  6
CONTINUOUS
 62
     7
 10
174.500000
 20
206.000000
 40
1.500000
 50
-0.000000
 51
180.000000
  0
ARC
  8
CSLAYER1
  6
CONTINUOUS
 62
     7
 10
174.500000
 20
179.000000
 40
1.500000
 50
180.000000
 51
360.000000
  0
LINE
  8
CSLAYER1
  6
CONTINUOUS
 62
     7
 10
179.000000
 20
179.000000
 11
179.000000
 21
206.000000
  0
LINE
  8
CSLAYER1
  6
CONTINUOUS
 62
     7
 10
182.000000
 20
179.000000
 11
182.000000
 21
206.000000
  0
ARC
  8
CSLAYER1
  6
CONTINUOUS
 62
     7
 10
180.500000
 20
206.000000
 40
1.500000
 50
-0.000000
 51
180.000000
  0
ARC
  8
CSLAYER1
  6
CONTINUOUS
 62
     7
 10
180.500000
 20
179.000000
 40
1.500000
 50
180.000000
 51
360.000000
  0
LINE
  8
CSLAYER1
  6
CONTINUOUS
 62
     7
 10
185.000000
 20
179.000000
 11
185.000000
 21
206.000000
  0
LINE
  8
CSLAYER1
  6
CONTINUOUS
 62
     7
 10
188.000000
 20
179.000000
 11
188.000000
 21
206.000000
  0
ARC
  8
CSLAYER1
  6
CONTINUOUS
 62
     7
 10
186.500000
 20
206.000000
 40
1.500000
 50
-0.000000
 51
180.000000
  0
ARC
  8
CSLAYER1
  6
CONTINUOUS
 62
     7
 10
186.500000
 20
179.000000
 40
1.500000
 50
180.000000
 51
360.000000
  0
LINE
  8
CSLAYER1
  6
CONTINUOUS
 62
     7
 10
191.000000
 20
179.000000
 11
191.000000
 21
206.000000
  0
LINE
  8
CSLAYER1
  6
CONTINUOUS
 62
     7
 10
194.000000
 20
179.000000
 11
194.000000
 21
206.000000
  0
ARC
  8
CSLAYER1
  6
CONTINUOUS
 62
     7
 10
192.500000
 20
206.000000
 40
1.500000
 50
-0.000000
 51
180.000000
  0
ARC
  8
CSLAYER1
  6
CONTINUOUS
 62
     7
 10
192.500000
 20
179.000000
 40
1.500000
 50
180.000000
 51
360.000000
  0
LINE
  8
CSLAYER1
  6
CONTINUOUS
 62
     7
 10
197.000000
 20
179.000000
 11
197.000000
 21
206.000000
  0
LINE
  8
CSLAYER1
  6
CONTINUOUS
 62
     7
 10
200.000000
 20
179.000000
 11
200.000000
 21
206.000000
  0
ARC
  8
CSLAYER1
  6
CONTINUOUS
 62
     7
 10
198.500000
 20
206.000000
 40
1.500000
 50
-0.000000
 51
180.000000
  0
ARC
  8
CSLAYER1
  6
CONTINUOUS
 62
     7
 10
198.500000
 20
179.000000
 40
1.500000
 50
180.000000
 51
360.000000
  0
LINE
  8
CSLAYER1
  6
CONTINUOUS
 62
     7
 10
203.000000
 20
179.000000
 11
203.000000
 21
206.000000
  0
LINE
  8
CSLAYER1
  6
CONTINUOUS
 62
     7
 10
206.000000
 20
179.000000
 11
206.000000
 21
206.000000
  0
ARC
  8
CSLAYER1
  6
CONTINUOUS
 62
     7
 10
204.500000
 20
206.000000
 40
1.500000
 50
-0.000000
 51
180.000000
  0
ARC
  8
CSLAYER1
  6
CONTINUOUS
 62
     7
 10
204.500000
 20
179.000000
 40
1.500000
 50
180.000000
 51
360.000000
  0
LINE
  8
CSLAYER1
  6
CONTINUOUS
 62
     7
 10
209.000000
 20
179.000000
 11
209.000000
 21
206.000000
  0
LINE
  8
CSLAYER1
  6
CONTINUOUS
 62
     7
 10
212.000000
 20
179.000000
 11
212.000000
 21
206.000000
  0
ARC
  8
CSLAYER1
  6
CONTINUOUS
 62
     7
 10
210.500000
 20
206.000000
 40
1.500000
 50
-0.000000
 51
180.000000
  0
ARC
  8
CSLAYER1
  6
CONTINUOUS
 62
     7
 10
210.500000
 20
179.000000
 40
1.500000
 50
180.000000
 51
360.000000
  0
LINE
  8
CSLAYER1
  6
CONTINUOUS
 62
     7
 10
215.000000
 20
179.000000
 11
215.000000
 21
206.000000
  0
LINE
  8
CSLAYER1
  6
CONTINUOUS
 62
     7
 10
218.000000
 20
179.000000
 11
218.000000
 21
206.000000
  0
ARC
  8
CSLAYER1
  6
CONTINUOUS
 62
     7
 10
216.500000
 20
206.000000
 40
1.500000
 50
-0.000000
 51
180.000000
  0
ARC
  8
CSLAYER1
  6
CONTINUOUS
 62
     7
 10
216.500000
 20
179.000000
 40
1.500000
 50
180.000000
 51
360.000000
  0
LINE
  8
CSLAYER1
  6
CONTINUOUS
 62
     7
 10
221.000000
 20
179.000000
 11
221.000000
 21
206.000000
  0
LINE
  8
CSLAYER1
  6
CONTINUOUS
 62
     7
 10
224.000000
 20
179.000000
 11
224.000000
 21
206.000000
  0
ARC
  8
CSLAYER1
  6
CONTINUOUS
 62
     7
 10
222.500000
 20
206.000000
 40
1.500000
 50
-0.000000
 51
180.000000
  0
ARC
  8
CSLAYER1
  6
CONTINUOUS
 62
     7
 10
222.500000
 20
179.000000
 40
1.500000
 50
180.000000
 51
360.000000
  0
LINE
  8
CSLAYER1
  6
CONTINUOUS
 62
     7
 10
227.000000
 20
179.000000
 11
227.000000
 21
206.000000
  0
LINE
  8
CSLAYER1
  6
CONTINUOUS
 62
     7
 10
230.000000
 20
179.000000
 11
230.000000
 21
206.000000
  0
ARC
  8
CSLAYER1
  6
CONTINUOUS
 62
     7
 10
228.500000
 20
206.000000
 40
1.500000
 50
-0.000000
 51
180.000000
  0
ARC
  8
CSLAYER1
  6
CONTINUOUS
 62
     7
 10
228.500000
 20
179.000000
 40
1.500000
 50
180.000000
 51
360.000000
  0
LINE
  8
CSLAYER1
  6
CONTINUOUS
 62
     7
 10
233.000000
 20
179.000000
 11
233.000000
 21
206.000000
  0
LINE
  8
CSLAYER1
  6
CONTINUOUS
 62
     7
 10
236.000000
 20
179.000000
 11
236.000000
 21
206.000000
  0
ARC
  8
CSLAYER1
  6
CONTINUOUS
 62
     7
 10
234.500000
 20
206.000000
 40
1.500000
 50
-0.000000
 51
180.000000
  0
ARC
  8
CSLAYER1
  6
CONTINUOUS
 62
     7
 10
234.500000
 20
179.000000
 40
1.500000
 50
180.000000
 51
360.000000
  0
LINE
  8
CSLAYER1
  6
CONTINUOUS
 62
     7
 10
239.000000
 20
179.000000
 11
239.000000
 21
206.000000
  0
LINE
  8
CSLAYER1
  6
CONTINUOUS
 62
     7
 10
242.000000
 20
179.000000
 11
242.000000
 21
206.000000
  0
ARC
  8
CSLAYER1
  6
CONTINUOUS
 62
     7
 10
240.500000
 20
206.000000
 40
1.500000
 50
-0.000000
 51
180.000000
  0
ARC
  8
CSLAYER1
  6
CONTINUOUS
 62
     7
 10
240.500000
 20
179.000000
 40
1.500000
 50
180.000000
 51
360.000000
  0
LINE
  8
CSLAYER1
  6
CONTINUOUS
 62
     7
 10
245.000000
 20
179.000000
 11
245.000000
 21
206.000000
  0
LINE
  8
CSLAYER1
  6
CONTINUOUS
 62
     7
 10
248.000000
 20
179.000000
 11
248.000000
 21
206.000000
  0
ARC
  8
CSLAYER1
  6
CONTINUOUS
 62
     7
 10
246.500000
 20
206.000000
 40
1.500000
 50
-0.000000
 51
180.000000
  0
ARC
  8
CSLAYER1
  6
CONTINUOUS
 62
     7
 10
246.500000
 20
179.000000
 40
1.500000
 50
180.000000
 51
360.000000
  0
LINE
  8
CSLAYER1
  6
CONTINUOUS
 62
     7
 10
251.000000
 20
179.000000
 11
251.000000
 21
206.000000
  0
LINE
  8
CSLAYER1
  6
CONTINUOUS
 62
     7
 10
254.000000
 20
179.000000
 11
254.000000
 21
206.000000
  0
ARC
  8
CSLAYER1
  6
CONTINUOUS
 62
     7
 10
252.500000
 20
206.000000
 40
1.500000
 50
-0.000000
 51
180.000000
  0
ARC
  8
CSLAYER1
  6
CONTINUOUS
 62
     7
 10
252.500000
 20
179.000000
 40
1.500000
 50
180.000000
 51
360.000000
  0
LINE
  8
CSLAYER1
  6
CONTINUOUS
 62
     7
 10
257.000000
 20
179.000000
 11
257.000000
 21
206.000000
  0
LINE
  8
CSLAYER1
  6
CONTINUOUS
 62
     7
 10
260.000000
 20
179.000000
 11
260.000000
 21
206.000000
  0
ARC
  8
CSLAYER1
  6
CONTINUOUS
 62
     7
 10
258.500000
 20
206.000000
 40
1.500000
 50
-0.000000
 51
180.000000
  0
ARC
  8
CSLAYER1
  6
CONTINUOUS
 62
     7
 10
258.500000
 20
179.000000
 40
1.500000
 50
180.000000
 51
360.000000
  0
LINE
  8
CSLAYER1
  6
CONTINUOUS
 62
     7
 10
263.000000
 20
179.000000
 11
263.000000
 21
206.000000
  0
LINE
  8
CSLAYER1
  6
CONTINUOUS
 62
     7
 10
266.000000
 20
179.000000
 11
266.000000
 21
206.000000
  0
ARC
  8
CSLAYER1
  6
CONTINUOUS
 62
     7
 10
264.500000
 20
206.000000
 40
1.500000
 50
-0.000000
 51
180.000000
  0
ARC
  8
CSLAYER1
  6
CONTINUOUS
 62
     7
 10
264.500000
 20
179.000000
 40
1.500000
 50
180.000000
 51
360.000000
  0
LINE
  8
CSLAYER1
  6
CONTINUOUS
 62
     7
 10
269.000000
 20
179.000000
 11
269.000000
 21
206.000000
  0
LINE
  8
CSLAYER1
  6
CONTINUOUS
 62
     7
 10
272.000000
 20
179.000000
 11
272.000000
 21
206.000000
  0
ARC
  8
CSLAYER1
  6
CONTINUOUS
 62
     7
 10
270.500000
 20
206.000000
 40
1.500000
 50
-0.000000
 51
180.000000
  0
ARC
  8
CSLAYER1
  6
CONTINUOUS
 62
     7
 10
270.500000
 20
179.000000
 40
1.500000
 50
180.000000
 51
360.000000
  0
LINE
  8
CSLAYER1
  6
CONTINUOUS
 62
     7
 10
275.000000
 20
179.000000
 11
275.000000
 21
206.000000
  0
LINE
  8
CSLAYER1
  6
CONTINUOUS
 62
     7
 10
278.000000
 20
179.000000
 11
278.000000
 21
206.000000
  0
ARC
  8
CSLAYER1
  6
CONTINUOUS
 62
     7
 10
276.500000
 20
206.000000
 40
1.500000
 50
-0.000000
 51
180.000000
  0
ARC
  8
CSLAYER1
  6
CONTINUOUS
 62
     7
 10
276.500000
 20
179.000000
 40
1.500000
 50
180.000000
 51
360.000000
  0
LINE
  8
CSLAYER1
  6
CONTINUOUS
 62
     7
 10
351.500000
 20
179.000000
 11
351.500000
 21
206.000000
  0
LINE
  8
CSLAYER1
  6
CONTINUOUS
 62
     7
 10
348.500000
 20
179.000000
 11
348.500000
 21
206.000000
  0
ARC
  8
CSLAYER1
  6
CONTINUOUS
 62
     7
 10
350.000000
 20
206.000000
 40
1.500000
 50
0.000000
 51
180.000000
  0
ARC
  8
CSLAYER1
  6
CONTINUOUS
 62
     7
 10
350.000000
 20
179.000000
 40
1.500000
 50
180.000000
 51
360.000000
  0
LINE
  8
CSLAYER1
  6
CONTINUOUS
 62
     7
 10
345.500000
 20
179.000000
 11
345.500000
 21
206.000000
  0
LINE
  8
CSLAYER1
  6
CONTINUOUS
 62
     7
 10
342.500000
 20
179.000000
 11
342.500000
 21
206.000000
  0
ARC
  8
CSLAYER1
  6
CONTINUOUS
 62
     7
 10
344.000000
 20
206.000000
 40
1.500000
 50
0.000000
 51
180.000000
  0
ARC
  8
CSLAYER1
  6
CONTINUOUS
 62
     7
 10
344.000000
 20
179.000000
 40
1.500000
 50
180.000000
 51
360.000000
  0
LINE
  8
CSLAYER1
  6
CONTINUOUS
 62
     7
 10
339.500000
 20
179.000000
 11
339.500000
 21
206.000000
  0
LINE
  8
CSLAYER1
  6
CONTINUOUS
 62
     7
 10
336.500000
 20
179.000000
 11
336.500000
 21
206.000000
  0
ARC
  8
CSLAYER1
  6
CONTINUOUS
 62
     7
 10
338.000000
 20
206.000000
 40
1.500000
 50
0.000000
 51
180.000000
  0
ARC
  8
CSLAYER1
  6
CONTINUOUS
 62
     7
 10
338.000000
 20
179.000000
 40
1.500000
 50
180.000000
 51
360.000000
  0
LINE
  8
CSLAYER1
  6
CONTINUOUS
 62
     7
 10
333.500000
 20
179.000000
 11
333.500000
 21
206.000000
  0
LINE
  8
CSLAYER1
  6
CONTINUOUS
 62
     7
 10
330.500000
 20
179.000000
 11
330.500000
 21
206.000000
  0
ARC
  8
CSLAYER1
  6
CONTINUOUS
 62
     7
 10
332.000000
 20
206.000000
 40
1.500000
 50
0.000000
 51
180.000000
  0
ARC
  8
CSLAYER1
  6
CONTINUOUS
 62
     7
 10
332.000000
 20
179.000000
 40
1.500000
 50
180.000000
 51
360.000000
  0
LINE
  8
CSLAYER1
  6
CONTINUOUS
 62
     7
 10
327.500000
 20
179.000000
 11
327.500000
 21
206.000000
  0
LINE
  8
CSLAYER1
  6
CONTINUOUS
 62
     7
 10
324.500000
 20
179.000000
 11
324.500000
 21
206.000000
  0
ARC
  8
CSLAYER1
  6
CONTINUOUS
 62
     7
 10
326.000000
 20
206.000000
 40
1.500000
 50
0.000000
 51
180.000000
  0
ARC
  8
CSLAYER1
  6
CONTINUOUS
 62
     7
 10
326.000000
 20
179.000000
 40
1.500000
 50
180.000000
 51
360.000000
  0
LINE
  8
CSLAYER1
  6
CONTINUOUS
 62
     6
 10
90.000000
 20
160.500000
 11
90.000000
 21
216.500000
  0
LINE
  8
CSLAYER1
  6
CONTINUOUS
 62
     6
 10
90.000000
 20
215.000000
 11
75.000000
 21
215.000000
  0
LINE
  8
CSLAYER1
  6
CONTINUOUS
 62
     6
 10
75.000000
 20
216.500000
 11
75.000000
 21
160.500000
  0
LINE
  8
CSLAYER1
  6
CONTINUOUS
 62
     6
 10
90.000000
 20
162.000000
 11
75.000000
 21
162.000000
  0
LINE
  8
CSLAYER1
  6
CONTINUOUS
 62
     6
 10
90.000000
 20
160.500000
 11
75.000000
 21
160.500000
  0
LINE
  8
CSLAYER1
  6
CONTINUOUS
 62
     6
 10
90.000000
 20
216.500000
 11
75.000000
 21
216.500000
  0
LINE
  8
CSLAYER1
  6
CONTINUOUS
 62
     6
 10
90.000000
 20
160.500000
 11
75.000000
 21
160.500000
  0
LINE
  8
CSLAYER1
  6
CONTINUOUS
 62
     6
 10
90.000000
 20
204.100000
 11
75.000000
 21
204.100000
  0
LINE
  8
CSLAYER1
  6
CONTINUOUS
 62
     6
 10
90.000000
 20
205.600000
 11
75.000000
 21
205.600000
  0
LINE
  8
CSLAYER1
  6
CONTINUOUS
 62
     6
 10
90.000000
 20
193.200000
 11
75.000000
 21
193.200000
  0
LINE
  8
CSLAYER1
  6
CONTINUOUS
 62
     6
 10
90.000000
 20
194.700000
 11
75.000000
 21
194.700000
  0
LINE
  8
CSLAYER1
  6
CONTINUOUS
 62
     6
 10
90.000000
 20
182.300000
 11
75.000000
 21
182.300000
  0
LINE
  8
CSLAYER1
  6
CONTINUOUS
 62
     6
 10
90.000000
 20
183.800000
 11
75.000000
 21
183.800000
  0
LINE
  8
CSLAYER1
  6
CONTINUOUS
 62
     6
 10
90.000000
 20
171.400000
 11
75.000000
 21
171.400000
  0
LINE
  8
CSLAYER1
  6
CONTINUOUS
 62
     6
 10
90.000000
 20
172.900000
 11
75.000000
 21
172.900000
  0
CIRCLE
  8
CSLAYER1
  6
CONTINUOUS
 62
     6
 10
82.500000
 20
210.225000
 40
3.500000
  0
ARC
  8
CSLAYER1
  6
CONTINUOUS
 62
     6
 10
82.499987
 20
210.225001
 40
1.944444
 50
163.398416
 51
196.601577
  0
ARC
  8
CSLAYER1
  6
CONTINUOUS
 62
     6
 10
82.499987
 20
210.225001
 40
1.944444
 50
253.398422
 51
286.601583
  0
ARC
  8
CSLAYER1
  6
CONTINUOUS
 62
     6
 10
82.499987
 20
210.225001
 40
1.944444
 50
-16.601562
 51
16.601572
  0
ARC
  8
CSLAYER1
  6
CONTINUOUS
 62
     6
 10
82.499987
 20
210.225001
 40
1.944444
 50
73.398406
 51
106.601595
  0
LINE
  8
CSLAYER1
  6
CONTINUOUS
 62
     6
 10
83.611112
 20
209.669438
 11
84.363369
 21
209.669438
  0
LINE
  8
CSLAYER1
  6
CONTINUOUS
 62
     6
 10
81.388862
 20
209.669438
 11
80.636606
 21
209.669438
  0
LINE
  8
CSLAYER1
  6
CONTINUOUS
 62
     6
 10
83.611112
 20
210.780563
 11
84.363369
 21
210.780563
  0
LINE
  8
CSLAYER1
  6
CONTINUOUS
 62
     6
 10
81.388862
 20
210.780563
 11
80.636606
 21
210.780563
  0
LINE
  8
CSLAYER1
  6
CONTINUOUS
 62
     6
 10
81.944425
 20
209.113905
 11
81.944425
 21
208.361590
  0
LINE
  8
CSLAYER1
  6
CONTINUOUS
 62
     6
 10
81.944425
 20
211.336097
 11
81.944425
 21
212.088411
  0
LINE
  8
CSLAYER1
  6
CONTINUOUS
 62
     6
 10
83.055550
 20
209.113905
 11
83.055550
 21
208.361590
  0
LINE
  8
CSLAYER1
  6
CONTINUOUS
 62
     6
 10
83.055550
 20
211.336097
 11
83.055550
 21
212.088411
  0
ARC
  8
CSLAYER1
  6
CONTINUOUS
 62
     6
 10
83.611112
 20
209.113905
 40
0.555556
 50
90.000001
 51
179.942691
  0
ARC
  8
CSLAYER1
  6
CONTINUOUS
 62
     6
 10
83.611112
 20
211.336097
 40
0.555556
 50
180.000010
 51
270.000016
  0
ARC
  8
CSLAYER1
  6
CONTINUOUS
 62
     6
 10
81.388862
 20
211.336097
 40
0.555556
 50
-89.999984
 51
0.000005
  0
ARC
  8
CSLAYER1
  6
CONTINUOUS
 62
     6
 10
81.388862
 20
209.113905
 40
0.555556
 50
0.000005
 51
89.942654
  0
CIRCLE
  8
CSLAYER1
  6
CONTINUOUS
 62
     6
 10
82.500000
 20
199.325000
 40
3.500000
  0
ARC
  8
CSLAYER1
  6
CONTINUOUS
 62
     6
 10
82.499987
 20
199.325001
 40
1.944444
 50
163.398416
 51
196.601577
  0
ARC
  8
CSLAYER1
  6
CONTINUOUS
 62
     6
 10
82.499987
 20
199.325001
 40
1.944444
 50
253.398422
 51
286.601583
  0
ARC
  8
CSLAYER1
  6
CONTINUOUS
 62
     6
 10
82.499987
 20
199.325001
 40
1.944444
 50
-16.601562
 51
16.601572
  0
ARC
  8
CSLAYER1
  6
CONTINUOUS
 62
     6
 10
82.499987
 20
199.325001
 40
1.944444
 50
73.398406
 51
106.601595
  0
LINE
  8
CSLAYER1
  6
CONTINUOUS
 62
     6
 10
83.611112
 20
198.769438
 11
84.363369
 21
198.769438
  0
LINE
  8
CSLAYER1
  6
CONTINUOUS
 62
     6
 10
81.388862
 20
198.769438
 11
80.636606
 21
198.769438
  0
LINE
  8
CSLAYER1
  6
CONTINUOUS
 62
     6
 10
83.611112
 20
199.880563
 11
84.363369
 21
199.880563
  0
LINE
  8
CSLAYER1
  6
CONTINUOUS
 62
     6
 10
81.388862
 20
199.880563
 11
80.636606
 21
199.880563
  0
LINE
  8
CSLAYER1
  6
CONTINUOUS
 62
     6
 10
81.944425
 20
198.213905
 11
81.944425
 21
197.461590
  0
LINE
  8
CSLAYER1
  6
CONTINUOUS
 62
     6
 10
81.944425
 20
200.436097
 11
81.944425
 21
201.188411
  0
LINE
  8
CSLAYER1
  6
CONTINUOUS
 62
     6
 10
83.055550
 20
198.213905
 11
83.055550
 21
197.461590
  0
LINE
  8
CSLAYER1
  6
CONTINUOUS
 62
     6
 10
83.055550
 20
200.436097
 11
83.055550
 21
201.188411
  0
ARC
  8
CSLAYER1
  6
CONTINUOUS
 62
     6
 10
83.611112
 20
198.213905
 40
0.555556
 50
90.000001
 51
179.942691
  0
ARC
  8
CSLAYER1
  6
CONTINUOUS
 62
     6
 10
83.611112
 20
200.436097
 40
0.555556
 50
180.000010
 51
270.000016
  0
ARC
  8
CSLAYER1
  6
CONTINUOUS
 62
     6
 10
81.388862
 20
200.436097
 40
0.555556
 50
-89.999984
 51
0.000005
  0
ARC
  8
CSLAYER1
  6
CONTINUOUS
 62
     6
 10
81.388862
 20
198.213905
 40
0.555556
 50
0.000005
 51
89.942654
  0
CIRCLE
  8
CSLAYER1
  6
CONTINUOUS
 62
     6
 10
82.499987
 20
188.425001
 40
3.500000
  0
ARC
  8
CSLAYER1
  6
CONTINUOUS
 62
     6
 10
82.499974
 20
188.425001
 40
1.944444
 50
163.398416
 51
196.601577
  0
ARC
  8
CSLAYER1
  6
CONTINUOUS
 62
     6
 10
82.499974
 20
188.425001
 40
1.944444
 50
253.398422
 51
286.601583
  0
ARC
  8
CSLAYER1
  6
CONTINUOUS
 62
     6
 10
82.499974
 20
188.425001
 40
1.944444
 50
-16.601562
 51
16.601572
  0
ARC
  8
CSLAYER1
  6
CONTINUOUS
 62
     6
 10
82.499974
 20
188.425001
 40
1.944444
 50
73.398406
 51
106.601595
  0
LINE
  8
CSLAYER1
  6
CONTINUOUS
 62
     6
 10
83.611099
 20
187.869439
 11
84.363356
 21
187.869439
  0
LINE
  8
CSLAYER1
  6
CONTINUOUS
 62
     6
 10
81.388850
 20
187.869439
 11
80.636593
 21
187.869439
  0
LINE
  8
CSLAYER1
  6
CONTINUOUS
 62
     6
 10
83.611099
 20
188.980564
 11
84.363356
 21
188.980564
  0
LINE
  8
CSLAYER1
  6
CONTINUOUS
 62
     6
 10
81.388850
 20
188.980564
 11
80.636593
 21
188.980564
  0
LINE
  8
CSLAYER1
  6
CONTINUOUS
 62
     6
 10
81.944412
 20
187.313905
 11
81.944412
 21
186.561591
  0
LINE
  8
CSLAYER1
  6
CONTINUOUS
 62
     6
 10
81.944412
 20
189.536097
 11
81.944412
 21
190.288412
  0
LINE
  8
CSLAYER1
  6
CONTINUOUS
 62
     6
 10
83.055537
 20
187.313905
 11
83.055537
 21
186.561591
  0
LINE
  8
CSLAYER1
  6
CONTINUOUS
 62
     6
 10
83.055537
 20
189.536097
 11
83.055537
 21
190.288412
  0
ARC
  8
CSLAYER1
  6
CONTINUOUS
 62
     6
 10
83.611099
 20
187.313905
 40
0.555556
 50
90.000001
 51
179.942691
  0
ARC
  8
CSLAYER1
  6
CONTINUOUS
 62
     6
 10
83.611099
 20
189.536097
 40
0.555556
 50
180.000010
 51
270.000016
  0
ARC
  8
CSLAYER1
  6
CONTINUOUS
 62
     6
 10
81.388850
 20
189.536097
 40
0.555556
 50
-89.999984
 51
0.000005
  0
ARC
  8
CSLAYER1
  6
CONTINUOUS
 62
     6
 10
81.388850
 20
187.313905
 40
0.555556
 50
0.000005
 51
89.942654
  0
CIRCLE
  8
CSLAYER1
  6
CONTINUOUS
 62
     6
 10
82.500000
 20
177.525000
 40
3.500000
  0
ARC
  8
CSLAYER1
  6
CONTINUOUS
 62
     6
 10
82.499987
 20
177.525001
 40
1.944444
 50
163.398416
 51
196.601577
  0
ARC
  8
CSLAYER1
  6
CONTINUOUS
 62
     6
 10
82.499987
 20
177.525001
 40
1.944444
 50
253.398422
 51
286.601583
  0
ARC
  8
CSLAYER1
  6
CONTINUOUS
 62
     6
 10
82.499987
 20
177.525001
 40
1.944444
 50
-16.601562
 51
16.601572
  0
ARC
  8
CSLAYER1
  6
CONTINUOUS
 62
     6
 10
82.499987
 20
177.525001
 40
1.944444
 50
73.398406
 51
106.601595
  0
LINE
  8
CSLAYER1
  6
CONTINUOUS
 62
     6
 10
83.611112
 20
176.969438
 11
84.363369
 21
176.969438
  0
LINE
  8
CSLAYER1
  6
CONTINUOUS
 62
     6
 10
81.388862
 20
176.969438
 11
80.636606
 21
176.969438
  0
LINE
  8
CSLAYER1
  6
CONTINUOUS
 62
     6
 10
83.611112
 20
178.080563
 11
84.363369
 21
178.080563
  0
LINE
  8
CSLAYER1
  6
CONTINUOUS
 62
     6
 10
81.388862
 20
178.080563
 11
80.636606
 21
178.080563
  0
LINE
  8
CSLAYER1
  6
CONTINUOUS
 62
     6
 10
81.944425
 20
176.413905
 11
81.944425
 21
175.661590
  0
LINE
  8
CSLAYER1
  6
CONTINUOUS
 62
     6
 10
81.944425
 20
178.636097
 11
81.944425
 21
179.388411
  0
LINE
  8
CSLAYER1
  6
CONTINUOUS
 62
     6
 10
83.055550
 20
176.413905
 11
83.055550
 21
175.661590
  0
LINE
  8
CSLAYER1
  6
CONTINUOUS
 62
     6
 10
83.055550
 20
178.636097
 11
83.055550
 21
179.388411
  0
ARC
  8
CSLAYER1
  6
CONTINUOUS
 62
     6
 10
83.611112
 20
176.413905
 40
0.555556
 50
90.000001
 51
179.942691
  0
ARC
  8
CSLAYER1
  6
CONTINUOUS
 62
     6
 10
83.611112
 20
178.636097
 40
0.555556
 50
180.000010
 51
270.000016
  0
ARC
  8
CSLAYER1
  6
CONTINUOUS
 62
     6
 10
81.388862
 20
178.636097
 40
0.555556
 50
-89.999984
 51
0.000005
  0
ARC
  8
CSLAYER1
  6
CONTINUOUS
 62
     6
 10
81.388862
 20
176.413905
 40
0.555556
 50
0.000005
 51
89.942654
  0
CIRCLE
  8
CSLAYER1
  6
CONTINUOUS
 62
     6
 10
82.500000
 20
166.625000
 40
3.500000
  0
ARC
  8
CSLAYER1
  6
CONTINUOUS
 62
     6
 10
82.499987
 20
166.625001
 40
1.944444
 50
163.398416
 51
196.601577
  0
ARC
  8
CSLAYER1
  6
CONTINUOUS
 62
     6
 10
82.499987
 20
166.625001
 40
1.944444
 50
253.398422
 51
286.601583
  0
ARC
  8
CSLAYER1
  6
CONTINUOUS
 62
     6
 10
82.499987
 20
166.625001
 40
1.944444
 50
-16.601562
 51
16.601572
  0
ARC
  8
CSLAYER1
  6
CONTINUOUS
 62
     6
 10
82.499987
 20
166.625001
 40
1.944444
 50
73.398406
 51
106.601595
  0
LINE
  8
CSLAYER1
  6
CONTINUOUS
 62
     6
 10
83.611112
 20
166.069438
 11
84.363369
 21
166.069438
  0
LINE
  8
CSLAYER1
  6
CONTINUOUS
 62
     6
 10
81.388862
 20
166.069438
 11
80.636606
 21
166.069438
  0
LINE
  8
CSLAYER1
  6
CONTINUOUS
 62
     6
 10
83.611112
 20
167.180563
 11
84.363369
 21
167.180563
  0
LINE
  8
CSLAYER1
  6
CONTINUOUS
 62
     6
 10
81.388862
 20
167.180563
 11
80.636606
 21
167.180563
  0
LINE
  8
CSLAYER1
  6
CONTINUOUS
 62
     6
 10
81.944425
 20
165.513905
 11
81.944425
 21
164.761590
  0
LINE
  8
CSLAYER1
  6
CONTINUOUS
 62
     6
 10
81.944425
 20
167.736097
 11
81.944425
 21
168.488411
  0
LINE
  8
CSLAYER1
  6
CONTINUOUS
 62
     6
 10
83.055550
 20
165.513905
 11
83.055550
 21
164.761590
  0
LINE
  8
CSLAYER1
  6
CONTINUOUS
 62
     6
 10
83.055550
 20
167.736097
 11
83.055550
 21
168.488411
  0
ARC
  8
CSLAYER1
  6
CONTINUOUS
 62
     6
 10
83.611112
 20
165.513905
 40
0.555556
 50
90.000001
 51
179.942691
  0
ARC
  8
CSLAYER1
  6
CONTINUOUS
 62
     6
 10
83.611112
 20
167.736097
 40
0.555556
 50
180.000010
 51
270.000016
  0
ARC
  8
CSLAYER1
  6
CONTINUOUS
 62
     6
 10
81.388862
 20
167.736097
 40
0.555556
 50
-89.999984
 51
0.000005
  0
ARC
  8
CSLAYER1
  6
CONTINUOUS
 62
     6
 10
81.388862
 20
165.513905
 40
0.555556
 50
0.000005
 51
89.942654
  0
TEXT
  8
CSLAYER1
 62
     3
 10
74.500000
 20
226.282211
 40
4.000000
 41
0.652174
  1
DC MOTOR
 50
0.000000
 51
0.000000
  7
FX_FONT
 72
     5
 11
94.500000
 21
226.282211
  0
TEXT
  8
CSLAYER1
 62
     3
 10
77.000000
 20
221.991135
 40
4.000000
 41
0.661765
  1
DRIVER
 50
0.000000
 51
0.000000
  7
FX_FONT
 72
     5
 11
92.000000
 21
221.991135
  0
TEXT
  8
CSLAYER1
 62
     3
 10
73.250000
 20
217.420944
 40
4.000000
 41
0.649038
  1
MS-100 10
 50
0.000000
 51
0.000000
  7
FX_FONT
 72
     5
 11
95.750000
 21
217.420944
  0
LINE
  8
CSLAYER1
  6
CONTINUOUS
 62
     6
 10
75.000000
 20
129.500000
 11
93.000000
 21
129.500000
  0
LINE
  8
CSLAYER1
  6
CONTINUOUS
 62
     6
 10
93.000000
 20
129.500000
 11
93.000000
 21
75.500000
  0
LINE
  8
CSLAYER1
  6
CONTINUOUS
 62
     6
 10
93.000000
 20
75.500000
 11
75.000000
 21
75.500000
  0
LINE
  8
CSLAYER1
  6
CONTINUOUS
 62
     6
 10
75.000000
 20
75.500000
 11
75.000000
 21
129.500000
  0
LINE
  8
CSLAYER1
  6
CONTINUOUS
 62
     3
 10
75.000000
 20
124.100000
 11
93.000000
 21
124.100000
  0
LINE
  8
CSLAYER1
  6
CONTINUOUS
 62
     3
 10
75.000000
 20
118.700000
 11
93.000000
 21
118.700000
  0
LINE
  8
CSLAYER1
  6
CONTINUOUS
 62
     3
 10
75.000000
 20
113.300000
 11
93.000000
 21
113.300000
  0
LINE
  8
CSLAYER1
  6
CONTINUOUS
 62
     3
 10
75.000000
 20
107.900000
 11
93.000000
 21
107.900000
  0
LINE
  8
CSLAYER1
  6
CONTINUOUS
 62
     3
 10
75.000000
 20
102.500000
 11
93.000000
 21
102.500000
  0
LINE
  8
CSLAYER1
  6
CONTINUOUS
 62
     3
 10
75.000000
 20
97.100000
 11
93.000000
 21
97.100000
  0
LINE
  8
CSLAYER1
  6
CONTINUOUS
 62
     3
 10
75.000000
 20
91.700000
 11
93.000000
 21
91.700000
  0
LINE
  8
CSLAYER1
  6
CONTINUOUS
 62
     3
 10
75.000000
 20
86.300000
 11
93.000000
 21
86.300000
  0
LINE
  8
CSLAYER1
  6
CONTINUOUS
 62
     3
 10
75.000000
 20
80.900000
 11
93.000000
 21
80.900000
  0
LINE
  8
CSLAYER1
  6
CONTINUOUS
 62
     3
 10
81.928203
 20
129.500000
 11
81.928203
 21
75.500000
  0
LINE
  8
CSLAYER1
  6
CONTINUOUS
 62
     3
 10
91.079803
 20
129.500000
 11
91.079803
 21
75.500000
  0
TEXT
  8
CSLAYER1
 62
     3
 10
65.708679
 20
124.100021
 40
4.500000
 41
0.700000
  1
TG+
 50
0.000000
 51
0.000000
  7
FX_FONT
 72
     5
 11
74.108679
 21
124.100021
  0
TEXT
  8
CSLAYER1
 62
     3
 10
65.708679
 20
118.699997
 40
4.500000
 41
0.700000
  1
TG-
 50
0.000000
 51
0.000000
  7
FX_FONT
 72
     5
 11
74.108679
 21
118.699997
  0
TEXT
  8
CSLAYER1
 62
     3
 10
65.708679
 20
113.300003
 40
4.500000
 41
0.700000
  1
VR1
 50
0.000000
 51
0.000000
  7
FX_FONT
 72
     5
 11
74.108679
 21
113.300003
  0
TEXT
  8
CSLAYER1
 62
     3
 10
65.708679
 20
107.900009
 40
4.500000
 41
0.700000
  1
VR2
 50
0.000000
 51
0.000000
  7
FX_FONT
 72
     5
 11
74.108679
 21
107.900009
  0
TEXT
  8
CSLAYER1
 62
     3
 10
65.708679
 20
102.499985
 40
4.500000
 41
0.700000
  1
VR3
 50
0.000000
 51
0.000000
  7
FX_FONT
 72
     5
 11
74.108679
 21
102.499985
  0
TEXT
  8
CSLAYER1
 62
     3
 10
65.708679
 20
97.099991
 40
4.500000
 41
0.700000
  1
COM
 50
0.000000
 51
0.000000
  7
FX_FONT
 72
     5
 11
74.108679
 21
97.099991
  0
TEXT
  8
CSLAYER1
 62
     3
 10
65.708679
 20
91.699997
 40
4.500000
 41
0.700000
  1
CWP
 50
0.000000
 51
0.000000
  7
FX_FONT
 72
     5
 11
74.108679
 21
91.699997
  0
TEXT
  8
CSLAYER1
 62
     3
 10
65.708679
 20
86.300003
 40
4.500000
 41
0.700000
  1
CCP
 50
0.000000
 51
0.000000
  7
FX_FONT
 72
     5
 11
74.108679
 21
86.300003
  0
TEXT
  8
CSLAYER1
 62
     3
 10
65.708679
 20
80.900009
 40
4.500000
 41
0.700000
  1
INH
 50
0.000000
 51
0.000000
  7
FX_FONT
 72
     5
 11
74.108679
 21
80.900009
  0
TEXT
  8
CSLAYER1
 62
     3
 10
65.708679
 20
75.499985
 40
4.500000
 41
0.700000
  1
COM
 50
0.000000
 51
0.000000
  7
FX_FONT
 72
     5
 11
74.108679
 21
75.499985
  0
LINE
  8
CSLAYER1
  6
CONTINUOUS
 62
     3
 10
86.928203
 20
129.500000
 11
86.928203
 21
75.500000
  0
ARC
  8
CSLAYER1
  6
CONTINUOUS
 62
     3
 10
87.992892
 20
126.800000
 40
1.805556
 50
-70.999198
 51
70.999198
  0
LINE
  8
CSLAYER1
  6
CONTINUOUS
 62
     3
 10
88.027337
 20
125.608366
 11
89.381565
 21
127.953957
  0
POLYLINE
  8
CSLAYER1
  6
CONTINUOUS
 62
     7
 66
     1
 10
0.0
 20
0.0
 30
0.0
  0
VERTEX
  8
CSLAYER1
  6
CONTINUOUS
 62
     7
 10
89.004003
 20
124.994444
 30
0.0
  0
VERTEX
  8
CSLAYER1
  6
CONTINUOUS
 62
     7
 10
89.117305
 20
125.001315
 30
0.0
  0
VERTEX
  8
CSLAYER1
  6
CONTINUOUS
 62
     7
 10
89.229746
 20
125.021875
 30
0.0
  0
VERTEX
  8
CSLAYER1
  6
CONTINUOUS
 62
     7
 10
89.340468
 20
125.055967
 30
0.0
  0
VERTEX
  8
CSLAYER1
  6
CONTINUOUS
 62
     7
 10
89.448629
 20
125.103333
 30
0.0
  0
VERTEX
  8
CSLAYER1
  6
CONTINUOUS
 62
     7
 10
89.553407
 20
125.163611
 30
0.0
  0
VERTEX
  8
CSLAYER1
  6
CONTINUOUS
 62
     7
 10
89.654003
 20
125.236343
 30
0.0
  0
VERTEX
  8
CSLAYER1
  6
CONTINUOUS
 62
     7
 10
89.749652
 20
125.320975
 30
0.0
  0
VERTEX
  8
CSLAYER1
  6
CONTINUOUS
 62
     7
 10
89.839627
 20
125.416864
 30
0.0
  0
VERTEX
  8
CSLAYER1
  6
CONTINUOUS
 62
     7
 10
89.923242
 20
125.523279
 30
0.0
  0
VERTEX
  8
CSLAYER1
  6
CONTINUOUS
 62
     7
 10
89.999861
 20
125.639411
 30
0.0
  0
VERTEX
  8
CSLAYER1
  6
CONTINUOUS
 62
     7
 10
90.068901
 20
125.764376
 30
0.0
  0
VERTEX
  8
CSLAYER1
  6
CONTINUOUS
 62
     7
 10
90.129836
 20
125.897222
 30
0.0
  0
VERTEX
  8
CSLAYER1
  6
CONTINUOUS
 62
     7
 10
90.182203
 20
126.036939
 30
0.0
  0
VERTEX
  8
CSLAYER1
  6
CONTINUOUS
 62
     7
 10
90.225603
 20
126.182464
 30
0.0
  0
VERTEX
  8
CSLAYER1
  6
CONTINUOUS
 62
     7
 10
90.259706
 20
126.332688
 30
0.0
  0
VERTEX
  8
CSLAYER1
  6
CONTINUOUS
 62
     7
 10
90.284253
 20
126.486469
 30
0.0
  0
VERTEX
  8
CSLAYER1
  6
CONTINUOUS
 62
     7
 10
90.299056
 20
126.642635
 30
0.0
  0
VERTEX
  8
CSLAYER1
  6
CONTINUOUS
 62
     7
 10
90.304003
 20
126.800000
 30
0.0
  0
VERTEX
  8
CSLAYER1
  6
CONTINUOUS
 62
     7
 10
90.299056
 20
126.957365
 30
0.0
  0
VERTEX
  8
CSLAYER1
  6
CONTINUOUS
 62
     7
 10
90.284253
 20
127.113531
 30
0.0
  0
VERTEX
  8
CSLAYER1
  6
CONTINUOUS
 62
     7
 10
90.259706
 20
127.267312
 30
0.0
  0
VERTEX
  8
CSLAYER1
  6
CONTINUOUS
 62
     7
 10
90.225603
 20
127.417536
 30
0.0
  0
VERTEX
  8
CSLAYER1
  6
CONTINUOUS
 62
     7
 10
90.182203
 20
127.563061
 30
0.0
  0
VERTEX
  8
CSLAYER1
  6
CONTINUOUS
 62
     7
 10
90.129836
 20
127.702778
 30
0.0
  0
VERTEX
  8
CSLAYER1
  6
CONTINUOUS
 62
     7
 10
90.068901
 20
127.835624
 30
0.0
  0
VERTEX
  8
CSLAYER1
  6
CONTINUOUS
 62
     7
 10
89.999861
 20
127.960589
 30
0.0
  0
VERTEX
  8
CSLAYER1
  6
CONTINUOUS
 62
     7
 10
89.923242
 20
128.076721
 30
0.0
  0
VERTEX
  8
CSLAYER1
  6
CONTINUOUS
 62
     7
 10
89.839627
 20
128.183136
 30
0.0
  0
VERTEX
  8
CSLAYER1
  6
CONTINUOUS
 62
     7
 10
89.749652
 20
128.279025
 30
0.0
  0
VERTEX
  8
CSLAYER1
  6
CONTINUOUS
 62
     7
 10
89.654003
 20
128.363657
 30
0.0
  0
VERTEX
  8
CSLAYER1
  6
CONTINUOUS
 62
     7
 10
89.553407
 20
128.436389
 30
0.0
  0
VERTEX
  8
CSLAYER1
  6
CONTINUOUS
 62
     7
 10
89.448629
 20
128.496667
 30
0.0
  0
VERTEX
  8
CSLAYER1
  6
CONTINUOUS
 62
     7
 10
89.340468
 20
128.544033
 30
0.0
  0
VERTEX
  8
CSLAYER1
  6
CONTINUOUS
 62
     7
 10
89.229746
 20
128.578125
 30
0.0
  0
VERTEX
  8
CSLAYER1
  6
CONTINUOUS
 62
     7
 10
89.117305
 20
128.598685
 30
0.0
  0
VERTEX
  8
CSLAYER1
  6
CONTINUOUS
 62
     7
 10
89.004003
 20
128.605556
 30
0.0
  0
VERTEX
  8
CSLAYER1
  6
CONTINUOUS
 62
     7
 10
88.890700
 20
128.598685
 30
0.0
  0
VERTEX
  8
CSLAYER1
  6
CONTINUOUS
 62
     7
 10
88.778260
 20
128.578125
 30
0.0
  0
VERTEX
  8
CSLAYER1
  6
CONTINUOUS
 62
     7
 10
88.667538
 20
128.544033
 30
0.0
  0
VERTEX
  8
CSLAYER1
  6
CONTINUOUS
 62
     7
 10
88.559377
 20
128.496667
 30
0.0
  0
VERTEX
  8
CSLAYER1
  6
CONTINUOUS
 62
     7
 10
88.454599
 20
128.436389
 30
0.0
  0
VERTEX
  8
CSLAYER1
  6
CONTINUOUS
 62
     7
 10
88.354003
 20
128.363657
 30
0.0
  0
VERTEX
  8
CSLAYER1
  6
CONTINUOUS
 62
     7
 10
88.258354
 20
128.279025
 30
0.0
  0
VERTEX
  8
CSLAYER1
  6
CONTINUOUS
 62
     7
 10
88.168379
 20
128.183136
 30
0.0
  0
VERTEX
  8
CSLAYER1
  6
CONTINUOUS
 62
     7
 10
88.084764
 20
128.076721
 30
0.0
  0
VERTEX
  8
CSLAYER1
  6
CONTINUOUS
 62
     7
 10
88.008145
 20
127.960589
 30
0.0
  0
VERTEX
  8
CSLAYER1
  6
CONTINUOUS
 62
     7
 10
87.939105
 20
127.835624
 30
0.0
  0
VERTEX
  8
CSLAYER1
  6
CONTINUOUS
 62
     7
 10
87.878170
 20
127.702778
 30
0.0
  0
VERTEX
  8
CSLAYER1
  6
CONTINUOUS
 62
     7
 10
87.825803
 20
127.563061
 30
0.0
  0
VERTEX
  8
CSLAYER1
  6
CONTINUOUS
 62
     7
 10
87.782403
 20
127.417536
 30
0.0
  0
VERTEX
  8
CSLAYER1
  6
CONTINUOUS
 62
     7
 10
87.748299
 20
127.267312
 30
0.0
  0
VERTEX
  8
CSLAYER1
  6
CONTINUOUS
 62
     7
 10
87.723753
 20
127.113531
 30
0.0
  0
VERTEX
  8
CSLAYER1
  6
CONTINUOUS
 62
     7
 10
87.708950
 20
126.957365
 30
0.0
  0
VERTEX
  8
CSLAYER1
  6
CONTINUOUS
 62
     7
 10
87.704003
 20
126.800000
 30
0.0
  0
VERTEX
  8
CSLAYER1
  6
CONTINUOUS
 62
     7
 10
87.708950
 20
126.642635
 30
0.0
  0
VERTEX
  8
CSLAYER1
  6
CONTINUOUS
 62
     7
 10
87.723753
 20
126.486469
 30
0.0
  0
VERTEX
  8
CSLAYER1
  6
CONTINUOUS
 62
     7
 10
87.748299
 20
126.332688
 30
0.0
  0
VERTEX
  8
CSLAYER1
  6
CONTINUOUS
 62
     7
 10
87.782403
 20
126.182464
 30
0.0
  0
VERTEX
  8
CSLAYER1
  6
CONTINUOUS
 62
     7
 10
87.825803
 20
126.036939
 30
0.0
  0
VERTEX
  8
CSLAYER1
  6
CONTINUOUS
 62
     7
 10
87.878170
 20
125.897222
 30
0.0
  0
VERTEX
  8
CSLAYER1
  6
CONTINUOUS
 62
     7
 10
87.939105
 20
125.764376
 30
0.0
  0
VERTEX
  8
CSLAYER1
  6
CONTINUOUS
 62
     7
 10
88.008145
 20
125.639411
 30
0.0
  0
VERTEX
  8
CSLAYER1
  6
CONTINUOUS
 62
     7
 10
88.084764
 20
125.523279
 30
0.0
  0
VERTEX
  8
CSLAYER1
  6
CONTINUOUS
 62
     7
 10
88.168379
 20
125.416864
 30
0.0
  0
VERTEX
  8
CSLAYER1
  6
CONTINUOUS
 62
     7
 10
88.258354
 20
125.320975
 30
0.0
  0
VERTEX
  8
CSLAYER1
  6
CONTINUOUS
 62
     7
 10
88.354003
 20
125.236343
 30
0.0
  0
VERTEX
  8
CSLAYER1
  6
CONTINUOUS
 62
     7
 10
88.454599
 20
125.163611
 30
0.0
  0
VERTEX
  8
CSLAYER1
  6
CONTINUOUS
 62
     7
 10
88.559377
 20
125.103333
 30
0.0
  0
VERTEX
  8
CSLAYER1
  6
CONTINUOUS
 62
     7
 10
88.667538
 20
125.055967
 30
0.0
  0
VERTEX
  8
CSLAYER1
  6
CONTINUOUS
 62
     7
 10
88.778260
 20
125.021875
 30
0.0
  0
VERTEX
  8
CSLAYER1
  6
CONTINUOUS
 62
     7
 10
88.890700
 20
125.001315
 30
0.0
  0
VERTEX
  8
CSLAYER1
  6
CONTINUOUS
 62
     7
 10
89.004003
 20
124.994444
 30
0.0
  0
SEQEND
  0
LINE
  8
CSLAYER1
  6
CONTINUOUS
 62
     6
 10
76.500000
 20
125.100000
 11
76.500000
 21
128.500000
  0
LINE
  8
CSLAYER1
  6
CONTINUOUS
 62
     6
 10
80.000000
 20
125.100000
 11
76.500000
 21
125.100000
  0
LINE
  8
CSLAYER1
  6
CONTINUOUS
 62
     6
 10
80.000000
 20
128.500000
 11
76.500000
 21
128.500000
  0
LINE
  8
CSLAYER1
  6
CONTINUOUS
 62
     6
 10
80.000000
 20
125.100000
 11
80.000000
 21
128.500000
  0
LINE
  8
CSLAYER1
  6
CONTINUOUS
 62
     6
 10
78.600000
 20
128.500000
 11
78.600000
 21
125.100000
  0
LINE
  8
CSLAYER1
  6
CONTINUOUS
 62
     6
 10
76.500000
 20
119.700000
 11
76.500000
 21
123.100000
  0
LINE
  8
CSLAYER1
  6
CONTINUOUS
 62
     6
 10
80.000000
 20
119.700000
 11
76.500000
 21
119.700000
  0
LINE
  8
CSLAYER1
  6
CONTINUOUS
 62
     6
 10
80.000000
 20
123.100000
 11
76.500000
 21
123.100000
  0
LINE
  8
CSLAYER1
  6
CONTINUOUS
 62
     6
 10
80.000000
 20
119.700000
 11
80.000000
 21
123.100000
  0
LINE
  8
CSLAYER1
  6
CONTINUOUS
 62
     6
 10
78.600000
 20
123.100000
 11
78.600000
 21
119.700000
  0
LINE
  8
CSLAYER1
  6
CONTINUOUS
 62
     6
 10
76.500000
 20
114.300000
 11
76.500000
 21
117.700000
  0
LINE
  8
CSLAYER1
  6
CONTINUOUS
 62
     6
 10
80.000000
 20
114.300000
 11
76.500000
 21
114.300000
  0
LINE
  8
CSLAYER1
  6
CONTINUOUS
 62
     6
 10
80.000000
 20
117.700000
 11
76.500000
 21
117.700000
  0
LINE
  8
CSLAYER1
  6
CONTINUOUS
 62
     6
 10
80.000000
 20
114.300000
 11
80.000000
 21
117.700000
  0
LINE
  8
CSLAYER1
  6
CONTINUOUS
 62
     6
 10
78.600000
 20
117.700000
 11
78.600000
 21
114.300000
  0
LINE
  8
CSLAYER1
  6
CONTINUOUS
 62
     6
 10
76.500000
 20
108.900000
 11
76.500000
 21
112.300000
  0
LINE
  8
CSLAYER1
  6
CONTINUOUS
 62
     6
 10
80.000000
 20
108.900000
 11
76.500000
 21
108.900000
  0
LINE
  8
CSLAYER1
  6
CONTINUOUS
 62
     6
 10
80.000000
 20
112.300000
 11
76.500000
 21
112.300000
  0
LINE
  8
CSLAYER1
  6
CONTINUOUS
 62
     6
 10
80.000000
 20
108.900000
 11
80.000000
 21
112.300000
  0
LINE
  8
CSLAYER1
  6
CONTINUOUS
 62
     6
 10
78.600000
 20
112.300000
 11
78.600000
 21
108.900000
  0
LINE
  8
CSLAYER1
  6
CONTINUOUS
 62
     6
 10
76.500000
 20
103.500000
 11
76.500000
 21
106.900000
  0
LINE
  8
CSLAYER1
  6
CONTINUOUS
 62
     6
 10
80.000000
 20
103.500000
 11
76.500000
 21
103.500000
  0
LINE
  8
CSLAYER1
  6
CONTINUOUS
 62
     6
 10
80.000000
 20
106.900000
 11
76.500000
 21
106.900000
  0
LINE
  8
CSLAYER1
  6
CONTINUOUS
 62
     6
 10
80.000000
 20
103.500000
 11
80.000000
 21
106.900000
  0
LINE
  8
CSLAYER1
  6
CONTINUOUS
 62
     6
 10
78.600000
 20
106.900000
 11
78.600000
 21
103.500000
  0
LINE
  8
CSLAYER1
  6
CONTINUOUS
 62
     6
 10
76.500000
 20
98.100000
 11
76.500000
 21
101.500000
  0
LINE
  8
CSLAYER1
  6
CONTINUOUS
 62
     6
 10
80.000000
 20
98.100000
 11
76.500000
 21
98.100000
  0
LINE
  8
CSLAYER1
  6
CONTINUOUS
 62
     6
 10
80.000000
 20
101.500000
 11
76.500000
 21
101.500000
  0
LINE
  8
CSLAYER1
  6
CONTINUOUS
 62
     6
 10
80.000000
 20
98.100000
 11
80.000000
 21
101.500000
  0
LINE
  8
CSLAYER1
  6
CONTINUOUS
 62
     6
 10
78.600000
 20
101.500000
 11
78.600000
 21
98.100000
  0
LINE
  8
CSLAYER1
  6
CONTINUOUS
 62
     6
 10
76.500000
 20
92.700000
 11
76.500000
 21
96.100000
  0
LINE
  8
CSLAYER1
  6
CONTINUOUS
 62
     6
 10
80.000000
 20
92.700000
 11
76.500000
 21
92.700000
  0
LINE
  8
CSLAYER1
  6
CONTINUOUS
 62
     6
 10
80.000000
 20
96.100000
 11
76.500000
 21
96.100000
  0
LINE
  8
CSLAYER1
  6
CONTINUOUS
 62
     6
 10
80.000000
 20
92.700000
 11
80.000000
 21
96.100000
  0
LINE
  8
CSLAYER1
  6
CONTINUOUS
 62
     6
 10
78.600000
 20
96.100000
 11
78.600000
 21
92.700000
  0
LINE
  8
CSLAYER1
  6
CONTINUOUS
 62
     6
 10
76.500000
 20
87.300000
 11
76.500000
 21
90.700000
  0
LINE
  8
CSLAYER1
  6
CONTINUOUS
 62
     6
 10
80.000000
 20
87.300000
 11
76.500000
 21
87.300000
  0
LINE
  8
CSLAYER1
  6
CONTINUOUS
 62
     6
 10
80.000000
 20
90.700000
 11
76.500000
 21
90.700000
  0
LINE
  8
CSLAYER1
  6
CONTINUOUS
 62
     6
 10
80.000000
 20
87.300000
 11
80.000000
 21
90.700000
  0
LINE
  8
CSLAYER1
  6
CONTINUOUS
 62
     6
 10
78.600000
 20
90.700000
 11
78.600000
 21
87.300000
  0
LINE
  8
CSLAYER1
  6
CONTINUOUS
 62
     6
 10
76.500000
 20
81.900000
 11
76.500000
 21
85.300000
  0
LINE
  8
CSLAYER1
  6
CONTINUOUS
 62
     6
 10
80.000000
 20
81.900000
 11
76.500000
 21
81.900000
  0
LINE
  8
CSLAYER1
  6
CONTINUOUS
 62
     6
 10
80.000000
 20
85.300000
 11
76.500000
 21
85.300000
  0
LINE
  8
CSLAYER1
  6
CONTINUOUS
 62
     6
 10
80.000000
 20
81.900000
 11
80.000000
 21
85.300000
  0
LINE
  8
CSLAYER1
  6
CONTINUOUS
 62
     6
 10
78.600000
 20
85.300000
 11
78.600000
 21
81.900000
  0
LINE
  8
CSLAYER1
  6
CONTINUOUS
 62
     6
 10
76.500000
 20
76.500000
 11
76.500000
 21
79.900000
  0
LINE
  8
CSLAYER1
  6
CONTINUOUS
 62
     6
 10
80.000000
 20
76.500000
 11
76.500000
 21
76.500000
  0
LINE
  8
CSLAYER1
  6
CONTINUOUS
 62
     6
 10
80.000000
 20
79.900000
 11
76.500000
 21
79.900000
  0
LINE
  8
CSLAYER1
  6
CONTINUOUS
 62
     6
 10
80.000000
 20
76.500000
 11
80.000000
 21
79.900000
  0
LINE
  8
CSLAYER1
  6
CONTINUOUS
 62
     6
 10
78.600000
 20
79.900000
 11
78.600000
 21
76.500000
  0
ARC
  8
CSLAYER1
  6
CONTINUOUS
 62
     3
 10
87.992892
 20
121.400000
 40
1.805556
 50
-70.999198
 51
70.999198
  0
LINE
  8
CSLAYER1
  6
CONTINUOUS
 62
     3
 10
88.027337
 20
120.208366
 11
89.381565
 21
122.553957
  0
POLYLINE
  8
CSLAYER1
  6
CONTINUOUS
 62
     7
 66
     1
 10
0.0
 20
0.0
 30
0.0
  0
VERTEX
  8
CSLAYER1
  6
CONTINUOUS
 62
     7
 10
89.004003
 20
119.594444
 30
0.0
  0
VERTEX
  8
CSLAYER1
  6
CONTINUOUS
 62
     7
 10
89.117305
 20
119.601315
 30
0.0
  0
VERTEX
  8
CSLAYER1
  6
CONTINUOUS
 62
     7
 10
89.229746
 20
119.621875
 30
0.0
  0
VERTEX
  8
CSLAYER1
  6
CONTINUOUS
 62
     7
 10
89.340468
 20
119.655967
 30
0.0
  0
VERTEX
  8
CSLAYER1
  6
CONTINUOUS
 62
     7
 10
89.448629
 20
119.703333
 30
0.0
  0
VERTEX
  8
CSLAYER1
  6
CONTINUOUS
 62
     7
 10
89.553407
 20
119.763611
 30
0.0
  0
VERTEX
  8
CSLAYER1
  6
CONTINUOUS
 62
     7
 10
89.654003
 20
119.836343
 30
0.0
  0
VERTEX
  8
CSLAYER1
  6
CONTINUOUS
 62
     7
 10
89.749652
 20
119.920975
 30
0.0
  0
VERTEX
  8
CSLAYER1
  6
CONTINUOUS
 62
     7
 10
89.839627
 20
120.016864
 30
0.0
  0
VERTEX
  8
CSLAYER1
  6
CONTINUOUS
 62
     7
 10
89.923242
 20
120.123279
 30
0.0
  0
VERTEX
  8
CSLAYER1
  6
CONTINUOUS
 62
     7
 10
89.999861
 20
120.239411
 30
0.0
  0
VERTEX
  8
CSLAYER1
  6
CONTINUOUS
 62
     7
 10
90.068901
 20
120.364376
 30
0.0
  0
VERTEX
  8
CSLAYER1
  6
CONTINUOUS
 62
     7
 10
90.129836
 20
120.497222
 30
0.0
  0
VERTEX
  8
CSLAYER1
  6
CONTINUOUS
 62
     7
 10
90.182203
 20
120.636939
 30
0.0
  0
VERTEX
  8
CSLAYER1
  6
CONTINUOUS
 62
     7
 10
90.225603
 20
120.782464
 30
0.0
  0
VERTEX
  8
CSLAYER1
  6
CONTINUOUS
 62
     7
 10
90.259706
 20
120.932688
 30
0.0
  0
VERTEX
  8
CSLAYER1
  6
CONTINUOUS
 62
     7
 10
90.284253
 20
121.086469
 30
0.0
  0
VERTEX
  8
CSLAYER1
  6
CONTINUOUS
 62
     7
 10
90.299056
 20
121.242635
 30
0.0
  0
VERTEX
  8
CSLAYER1
  6
CONTINUOUS
 62
     7
 10
90.304003
 20
121.400000
 30
0.0
  0
VERTEX
  8
CSLAYER1
  6
CONTINUOUS
 62
     7
 10
90.299056
 20
121.557365
 30
0.0
  0
VERTEX
  8
CSLAYER1
  6
CONTINUOUS
 62
     7
 10
90.284253
 20
121.713531
 30
0.0
  0
VERTEX
  8
CSLAYER1
  6
CONTINUOUS
 62
     7
 10
90.259706
 20
121.867312
 30
0.0
  0
VERTEX
  8
CSLAYER1
  6
CONTINUOUS
 62
     7
 10
90.225603
 20
122.017536
 30
0.0
  0
VERTEX
  8
CSLAYER1
  6
CONTINUOUS
 62
     7
 10
90.182203
 20
122.163061
 30
0.0
  0
VERTEX
  8
CSLAYER1
  6
CONTINUOUS
 62
     7
 10
90.129836
 20
122.302778
 30
0.0
  0
VERTEX
  8
CSLAYER1
  6
CONTINUOUS
 62
     7
 10
90.068901
 20
122.435624
 30
0.0
  0
VERTEX
  8
CSLAYER1
  6
CONTINUOUS
 62
     7
 10
89.999861
 20
122.560589
 30
0.0
  0
VERTEX
  8
CSLAYER1
  6
CONTINUOUS
 62
     7
 10
89.923242
 20
122.676721
 30
0.0
  0
VERTEX
  8
CSLAYER1
  6
CONTINUOUS
 62
     7
 10
89.839627
 20
122.783136
 30
0.0
  0
VERTEX
  8
CSLAYER1
  6
CONTINUOUS
 62
     7
 10
89.749652
 20
122.879025
 30
0.0
  0
VERTEX
  8
CSLAYER1
  6
CONTINUOUS
 62
     7
 10
89.654003
 20
122.963657
 30
0.0
  0
VERTEX
  8
CSLAYER1
  6
CONTINUOUS
 62
     7
 10
89.553407
 20
123.036389
 30
0.0
  0
VERTEX
  8
CSLAYER1
  6
CONTINUOUS
 62
     7
 10
89.448629
 20
123.096667
 30
0.0
  0
VERTEX
  8
CSLAYER1
  6
CONTINUOUS
 62
     7
 10
89.340468
 20
123.144033
 30
0.0
  0
VERTEX
  8
CSLAYER1
  6
CONTINUOUS
 62
     7
 10
89.229746
 20
123.178125
 30
0.0
  0
VERTEX
  8
CSLAYER1
  6
CONTINUOUS
 62
     7
 10
89.117305
 20
123.198685
 30
0.0
  0
VERTEX
  8
CSLAYER1
  6
CONTINUOUS
 62
     7
 10
89.004003
 20
123.205556
 30
0.0
  0
VERTEX
  8
CSLAYER1
  6
CONTINUOUS
 62
     7
 10
88.890700
 20
123.198685
 30
0.0
  0
VERTEX
  8
CSLAYER1
  6
CONTINUOUS
 62
     7
 10
88.778260
 20
123.178125
 30
0.0
  0
VERTEX
  8
CSLAYER1
  6
CONTINUOUS
 62
     7
 10
88.667538
 20
123.144033
 30
0.0
  0
VERTEX
  8
CSLAYER1
  6
CONTINUOUS
 62
     7
 10
88.559377
 20
123.096667
 30
0.0
  0
VERTEX
  8
CSLAYER1
  6
CONTINUOUS
 62
     7
 10
88.454599
 20
123.036389
 30
0.0
  0
VERTEX
  8
CSLAYER1
  6
CONTINUOUS
 62
     7
 10
88.354003
 20
122.963657
 30
0.0
  0
VERTEX
  8
CSLAYER1
  6
CONTINUOUS
 62
     7
 10
88.258354
 20
122.879025
 30
0.0
  0
VERTEX
  8
CSLAYER1
  6
CONTINUOUS
 62
     7
 10
88.168379
 20
122.783136
 30
0.0
  0
VERTEX
  8
CSLAYER1
  6
CONTINUOUS
 62
     7
 10
88.084764
 20
122.676721
 30
0.0
  0
VERTEX
  8
CSLAYER1
  6
CONTINUOUS
 62
     7
 10
88.008145
 20
122.560589
 30
0.0
  0
VERTEX
  8
CSLAYER1
  6
CONTINUOUS
 62
     7
 10
87.939105
 20
122.435624
 30
0.0
  0
VERTEX
  8
CSLAYER1
  6
CONTINUOUS
 62
     7
 10
87.878170
 20
122.302778
 30
0.0
  0
VERTEX
  8
CSLAYER1
  6
CONTINUOUS
 62
     7
 10
87.825803
 20
122.163061
 30
0.0
  0
VERTEX
  8
CSLAYER1
  6
CONTINUOUS
 62
     7
 10
87.782403
 20
122.017536
 30
0.0
  0
VERTEX
  8
CSLAYER1
  6
CONTINUOUS
 62
     7
 10
87.748299
 20
121.867312
 30
0.0
  0
VERTEX
  8
CSLAYER1
  6
CONTINUOUS
 62
     7
 10
87.723753
 20
121.713531
 30
0.0
  0
VERTEX
  8
CSLAYER1
  6
CONTINUOUS
 62
     7
 10
87.708950
 20
121.557365
 30
0.0
  0
VERTEX
  8
CSLAYER1
  6
CONTINUOUS
 62
     7
 10
87.704003
 20
121.400000
 30
0.0
  0
VERTEX
  8
CSLAYER1
  6
CONTINUOUS
 62
     7
 10
87.708950
 20
121.242635
 30
0.0
  0
VERTEX
  8
CSLAYER1
  6
CONTINUOUS
 62
     7
 10
87.723753
 20
121.086469
 30
0.0
  0
VERTEX
  8
CSLAYER1
  6
CONTINUOUS
 62
     7
 10
87.748299
 20
120.932688
 30
0.0
  0
VERTEX
  8
CSLAYER1
  6
CONTINUOUS
 62
     7
 10
87.782403
 20
120.782464
 30
0.0
  0
VERTEX
  8
CSLAYER1
  6
CONTINUOUS
 62
     7
 10
87.825803
 20
120.636939
 30
0.0
  0
VERTEX
  8
CSLAYER1
  6
CONTINUOUS
 62
     7
 10
87.878170
 20
120.497222
 30
0.0
  0
VERTEX
  8
CSLAYER1
  6
CONTINUOUS
 62
     7
 10
87.939105
 20
120.364376
 30
0.0
  0
VERTEX
  8
CSLAYER1
  6
CONTINUOUS
 62
     7
 10
88.008145
 20
120.239411
 30
0.0
  0
VERTEX
  8
CSLAYER1
  6
CONTINUOUS
 62
     7
 10
88.084764
 20
120.123279
 30
0.0
  0
VERTEX
  8
CSLAYER1
  6
CONTINUOUS
 62
     7
 10
88.168379
 20
120.016864
 30
0.0
  0
VERTEX
  8
CSLAYER1
  6
CONTINUOUS
 62
     7
 10
88.258354
 20
119.920975
 30
0.0
  0
VERTEX
  8
CSLAYER1
  6
CONTINUOUS
 62
     7
 10
88.354003
 20
119.836343
 30
0.0
  0
VERTEX
  8
CSLAYER1
  6
CONTINUOUS
 62
     7
 10
88.454599
 20
119.763611
 30
0.0
  0
VERTEX
  8
CSLAYER1
  6
CONTINUOUS
 62
     7
 10
88.559377
 20
119.703333
 30
0.0
  0
VERTEX
  8
CSLAYER1
  6
CONTINUOUS
 62
     7
 10
88.667538
 20
119.655967
 30
0.0
  0
VERTEX
  8
CSLAYER1
  6
CONTINUOUS
 62
     7
 10
88.778260
 20
119.621875
 30
0.0
  0
VERTEX
  8
CSLAYER1
  6
CONTINUOUS
 62
     7
 10
88.890700
 20
119.601315
 30
0.0
  0
VERTEX
  8
CSLAYER1
  6
CONTINUOUS
 62
     7
 10
89.004003
 20
119.594444
 30
0.0
  0
SEQEND
  0
ARC
  8
CSLAYER1
  6
CONTINUOUS
 62
     3
 10
87.992892
 20
116.000000
 40
1.805556
 50
-70.999198
 51
70.999198
  0
LINE
  8
CSLAYER1
  6
CONTINUOUS
 62
     3
 10
88.027337
 20
114.808366
 11
89.381565
 21
117.153957
  0
POLYLINE
  8
CSLAYER1
  6
CONTINUOUS
 62
     7
 66
     1
 10
0.0
 20
0.0
 30
0.0
  0
VERTEX
  8
CSLAYER1
  6
CONTINUOUS
 62
     7
 10
89.004003
 20
114.194444
 30
0.0
  0
VERTEX
  8
CSLAYER1
  6
CONTINUOUS
 62
     7
 10
89.117305
 20
114.201315
 30
0.0
  0
VERTEX
  8
CSLAYER1
  6
CONTINUOUS
 62
     7
 10
89.229746
 20
114.221875
 30
0.0
  0
VERTEX
  8
CSLAYER1
  6
CONTINUOUS
 62
     7
 10
89.340468
 20
114.255967
 30
0.0
  0
VERTEX
  8
CSLAYER1
  6
CONTINUOUS
 62
     7
 10
89.448629
 20
114.303333
 30
0.0
  0
VERTEX
  8
CSLAYER1
  6
CONTINUOUS
 62
     7
 10
89.553407
 20
114.363611
 30
0.0
  0
VERTEX
  8
CSLAYER1
  6
CONTINUOUS
 62
     7
 10
89.654003
 20
114.436343
 30
0.0
  0
VERTEX
  8
CSLAYER1
  6
CONTINUOUS
 62
     7
 10
89.749652
 20
114.520975
 30
0.0
  0
VERTEX
  8
CSLAYER1
  6
CONTINUOUS
 62
     7
 10
89.839627
 20
114.616864
 30
0.0
  0
VERTEX
  8
CSLAYER1
  6
CONTINUOUS
 62
     7
 10
89.923242
 20
114.723279
 30
0.0
  0
VERTEX
  8
CSLAYER1
  6
CONTINUOUS
 62
     7
 10
89.999861
 20
114.839411
 30
0.0
  0
VERTEX
  8
CSLAYER1
  6
CONTINUOUS
 62
     7
 10
90.068901
 20
114.964376
 30
0.0
  0
VERTEX
  8
CSLAYER1
  6
CONTINUOUS
 62
     7
 10
90.129836
 20
115.097222
 30
0.0
  0
VERTEX
  8
CSLAYER1
  6
CONTINUOUS
 62
     7
 10
90.182203
 20
115.236939
 30
0.0
  0
VERTEX
  8
CSLAYER1
  6
CONTINUOUS
 62
     7
 10
90.225603
 20
115.382464
 30
0.0
  0
VERTEX
  8
CSLAYER1
  6
CONTINUOUS
 62
     7
 10
90.259706
 20
115.532688
 30
0.0
  0
VERTEX
  8
CSLAYER1
  6
CONTINUOUS
 62
     7
 10
90.284253
 20
115.686469
 30
0.0
  0
VERTEX
  8
CSLAYER1
  6
CONTINUOUS
 62
     7
 10
90.299056
 20
115.842635
 30
0.0
  0
VERTEX
  8
CSLAYER1
  6
CONTINUOUS
 62
     7
 10
90.304003
 20
116.000000
 30
0.0
  0
VERTEX
  8
CSLAYER1
  6
CONTINUOUS
 62
     7
 10
90.299056
 20
116.157365
 30
0.0
  0
VERTEX
  8
CSLAYER1
  6
CONTINUOUS
 62
     7
 10
90.284253
 20
116.313531
 30
0.0
  0
VERTEX
  8
CSLAYER1
  6
CONTINUOUS
 62
     7
 10
90.259706
 20
116.467312
 30
0.0
  0
VERTEX
  8
CSLAYER1
  6
CONTINUOUS
 62
     7
 10
90.225603
 20
116.617536
 30
0.0
  0
VERTEX
  8
CSLAYER1
  6
CONTINUOUS
 62
     7
 10
90.182203
 20
116.763061
 30
0.0
  0
VERTEX
  8
CSLAYER1
  6
CONTINUOUS
 62
     7
 10
90.129836
 20
116.902778
 30
0.0
  0
VERTEX
  8
CSLAYER1
  6
CONTINUOUS
 62
     7
 10
90.068901
 20
117.035624
 30
0.0
  0
VERTEX
  8
CSLAYER1
  6
CONTINUOUS
 62
     7
 10
89.999861
 20
117.160589
 30
0.0
  0
VERTEX
  8
CSLAYER1
  6
CONTINUOUS
 62
     7
 10
89.923242
 20
117.276721
 30
0.0
  0
VERTEX
  8
CSLAYER1
  6
CONTINUOUS
 62
     7
 10
89.839627
 20
117.383136
 30
0.0
  0
VERTEX
  8
CSLAYER1
  6
CONTINUOUS
 62
     7
 10
89.749652
 20
117.479025
 30
0.0
  0
VERTEX
  8
CSLAYER1
  6
CONTINUOUS
 62
     7
 10
89.654003
 20
117.563657
 30
0.0
  0
VERTEX
  8
CSLAYER1
  6
CONTINUOUS
 62
     7
 10
89.553407
 20
117.636389
 30
0.0
  0
VERTEX
  8
CSLAYER1
  6
CONTINUOUS
 62
     7
 10
89.448629
 20
117.696667
 30
0.0
  0
VERTEX
  8
CSLAYER1
  6
CONTINUOUS
 62
     7
 10
89.340468
 20
117.744033
 30
0.0
  0
VERTEX
  8
CSLAYER1
  6
CONTINUOUS
 62
     7
 10
89.229746
 20
117.778125
 30
0.0
  0
VERTEX
  8
CSLAYER1
  6
CONTINUOUS
 62
     7
 10
89.117305
 20
117.798685
 30
0.0
  0
VERTEX
  8
CSLAYER1
  6
CONTINUOUS
 62
     7
 10
89.004003
 20
117.805556
 30
0.0
  0
VERTEX
  8
CSLAYER1
  6
CONTINUOUS
 62
     7
 10
88.890700
 20
117.798685
 30
0.0
  0
VERTEX
  8
CSLAYER1
  6
CONTINUOUS
 62
     7
 10
88.778260
 20
117.778125
 30
0.0
  0
VERTEX
  8
CSLAYER1
  6
CONTINUOUS
 62
     7
 10
88.667538
 20
117.744033
 30
0.0
  0
VERTEX
  8
CSLAYER1
  6
CONTINUOUS
 62
     7
 10
88.559377
 20
117.696667
 30
0.0
  0
VERTEX
  8
CSLAYER1
  6
CONTINUOUS
 62
     7
 10
88.454599
 20
117.636389
 30
0.0
  0
VERTEX
  8
CSLAYER1
  6
CONTINUOUS
 62
     7
 10
88.354003
 20
117.563657
 30
0.0
  0
VERTEX
  8
CSLAYER1
  6
CONTINUOUS
 62
     7
 10
88.258354
 20
117.479025
 30
0.0
  0
VERTEX
  8
CSLAYER1
  6
CONTINUOUS
 62
     7
 10
88.168379
 20
117.383136
 30
0.0
  0
VERTEX
  8
CSLAYER1
  6
CONTINUOUS
 62
     7
 10
88.084764
 20
117.276721
 30
0.0
  0
VERTEX
  8
CSLAYER1
  6
CONTINUOUS
 62
     7
 10
88.008145
 20
117.160589
 30
0.0
  0
VERTEX
  8
CSLAYER1
  6
CONTINUOUS
 62
     7
 10
87.939105
 20
117.035624
 30
0.0
  0
VERTEX
  8
CSLAYER1
  6
CONTINUOUS
 62
     7
 10
87.878170
 20
116.902778
 30
0.0
  0
VERTEX
  8
CSLAYER1
  6
CONTINUOUS
 62
     7
 10
87.825803
 20
116.763061
 30
0.0
  0
VERTEX
  8
CSLAYER1
  6
CONTINUOUS
 62
     7
 10
87.782403
 20
116.617536
 30
0.0
  0
VERTEX
  8
CSLAYER1
  6
CONTINUOUS
 62
     7
 10
87.748299
 20
116.467312
 30
0.0
  0
VERTEX
  8
CSLAYER1
  6
CONTINUOUS
 62
     7
 10
87.723753
 20
116.313531
 30
0.0
  0
VERTEX
  8
CSLAYER1
  6
CONTINUOUS
 62
     7
 10
87.708950
 20
116.157365
 30
0.0
  0
VERTEX
  8
CSLAYER1
  6
CONTINUOUS
 62
     7
 10
87.704003
 20
116.000000
 30
0.0
  0
VERTEX
  8
CSLAYER1
  6
CONTINUOUS
 62
     7
 10
87.708950
 20
115.842635
 30
0.0
  0
VERTEX
  8
CSLAYER1
  6
CONTINUOUS
 62
     7
 10
87.723753
 20
115.686469
 30
0.0
  0
VERTEX
  8
CSLAYER1
  6
CONTINUOUS
 62
     7
 10
87.748299
 20
115.532688
 30
0.0
  0
VERTEX
  8
CSLAYER1
  6
CONTINUOUS
 62
     7
 10
87.782403
 20
115.382464
 30
0.0
  0
VERTEX
  8
CSLAYER1
  6
CONTINUOUS
 62
     7
 10
87.825803
 20
115.236939
 30
0.0
  0
VERTEX
  8
CSLAYER1
  6
CONTINUOUS
 62
     7
 10
87.878170
 20
115.097222
 30
0.0
  0
VERTEX
  8
CSLAYER1
  6
CONTINUOUS
 62
     7
 10
87.939105
 20
114.964376
 30
0.0
  0
VERTEX
  8
CSLAYER1
  6
CONTINUOUS
 62
     7
 10
88.008145
 20
114.839411
 30
0.0
  0
VERTEX
  8
CSLAYER1
  6
CONTINUOUS
 62
     7
 10
88.084764
 20
114.723279
 30
0.0
  0
VERTEX
  8
CSLAYER1
  6
CONTINUOUS
 62
     7
 10
88.168379
 20
114.616864
 30
0.0
  0
VERTEX
  8
CSLAYER1
  6
CONTINUOUS
 62
     7
 10
88.258354
 20
114.520975
 30
0.0
  0
VERTEX
  8
CSLAYER1
  6
CONTINUOUS
 62
     7
 10
88.354003
 20
114.436343
 30
0.0
  0
VERTEX
  8
CSLAYER1
  6
CONTINUOUS
 62
     7
 10
88.454599
 20
114.363611
 30
0.0
  0
VERTEX
  8
CSLAYER1
  6
CONTINUOUS
 62
     7
 10
88.559377
 20
114.303333
 30
0.0
  0
VERTEX
  8
CSLAYER1
  6
CONTINUOUS
 62
     7
 10
88.667538
 20
114.255967
 30
0.0
  0
VERTEX
  8
CSLAYER1
  6
CONTINUOUS
 62
     7
 10
88.778260
 20
114.221875
 30
0.0
  0
VERTEX
  8
CSLAYER1
  6
CONTINUOUS
 62
     7
 10
88.890700
 20
114.201315
 30
0.0
  0
VERTEX
  8
CSLAYER1
  6
CONTINUOUS
 62
     7
 10
89.004003
 20
114.194444
 30
0.0
  0
SEQEND
  0
ARC
  8
CSLAYER1
  6
CONTINUOUS
 62
     3
 10
87.992892
 20
110.600000
 40
1.805556
 50
-70.999198
 51
70.999198
  0
LINE
  8
CSLAYER1
  6
CONTINUOUS
 62
     3
 10
88.027337
 20
109.408366
 11
89.381565
 21
111.753957
  0
POLYLINE
  8
CSLAYER1
  6
CONTINUOUS
 62
     7
 66
     1
 10
0.0
 20
0.0
 30
0.0
  0
VERTEX
  8
CSLAYER1
  6
CONTINUOUS
 62
     7
 10
89.004003
 20
108.794444
 30
0.0
  0
VERTEX
  8
CSLAYER1
  6
CONTINUOUS
 62
     7
 10
89.117305
 20
108.801315
 30
0.0
  0
VERTEX
  8
CSLAYER1
  6
CONTINUOUS
 62
     7
 10
89.229746
 20
108.821875
 30
0.0
  0
VERTEX
  8
CSLAYER1
  6
CONTINUOUS
 62
     7
 10
89.340468
 20
108.855967
 30
0.0
  0
VERTEX
  8
CSLAYER1
  6
CONTINUOUS
 62
     7
 10
89.448629
 20
108.903333
 30
0.0
  0
VERTEX
  8
CSLAYER1
  6
CONTINUOUS
 62
     7
 10
89.553407
 20
108.963611
 30
0.0
  0
VERTEX
  8
CSLAYER1
  6
CONTINUOUS
 62
     7
 10
89.654003
 20
109.036343
 30
0.0
  0
VERTEX
  8
CSLAYER1
  6
CONTINUOUS
 62
     7
 10
89.749652
 20
109.120975
 30
0.0
  0
VERTEX
  8
CSLAYER1
  6
CONTINUOUS
 62
     7
 10
89.839627
 20
109.216864
 30
0.0
  0
VERTEX
  8
CSLAYER1
  6
CONTINUOUS
 62
     7
 10
89.923242
 20
109.323279
 30
0.0
  0
VERTEX
  8
CSLAYER1
  6
CONTINUOUS
 62
     7
 10
89.999861
 20
109.439411
 30
0.0
  0
VERTEX
  8
CSLAYER1
  6
CONTINUOUS
 62
     7
 10
90.068901
 20
109.564376
 30
0.0
  0
VERTEX
  8
CSLAYER1
  6
CONTINUOUS
 62
     7
 10
90.129836
 20
109.697222
 30
0.0
  0
VERTEX
  8
CSLAYER1
  6
CONTINUOUS
 62
     7
 10
90.182203
 20
109.836939
 30
0.0
  0
VERTEX
  8
CSLAYER1
  6
CONTINUOUS
 62
     7
 10
90.225603
 20
109.982464
 30
0.0
  0
VERTEX
  8
CSLAYER1
  6
CONTINUOUS
 62
     7
 10
90.259706
 20
110.132688
 30
0.0
  0
VERTEX
  8
CSLAYER1
  6
CONTINUOUS
 62
     7
 10
90.284253
 20
110.286469
 30
0.0
  0
VERTEX
  8
CSLAYER1
  6
CONTINUOUS
 62
     7
 10
90.299056
 20
110.442635
 30
0.0
  0
VERTEX
  8
CSLAYER1
  6
CONTINUOUS
 62
     7
 10
90.304003
 20
110.600000
 30
0.0
  0
VERTEX
  8
CSLAYER1
  6
CONTINUOUS
 62
     7
 10
90.299056
 20
110.757365
 30
0.0
  0
VERTEX
  8
CSLAYER1
  6
CONTINUOUS
 62
     7
 10
90.284253
 20
110.913531
 30
0.0
  0
VERTEX
  8
CSLAYER1
  6
CONTINUOUS
 62
     7
 10
90.259706
 20
111.067312
 30
0.0
  0
VERTEX
  8
CSLAYER1
  6
CONTINUOUS
 62
     7
 10
90.225603
 20
111.217536
 30
0.0
  0
VERTEX
  8
CSLAYER1
  6
CONTINUOUS
 62
     7
 10
90.182203
 20
111.363061
 30
0.0
  0
VERTEX
  8
CSLAYER1
  6
CONTINUOUS
 62
     7
 10
90.129836
 20
111.502778
 30
0.0
  0
VERTEX
  8
CSLAYER1
  6
CONTINUOUS
 62
     7
 10
90.068901
 20
111.635624
 30
0.0
  0
VERTEX
  8
CSLAYER1
  6
CONTINUOUS
 62
     7
 10
89.999861
 20
111.760589
 30
0.0
  0
VERTEX
  8
CSLAYER1
  6
CONTINUOUS
 62
     7
 10
89.923242
 20
111.876721
 30
0.0
  0
VERTEX
  8
CSLAYER1
  6
CONTINUOUS
 62
     7
 10
89.839627
 20
111.983136
 30
0.0
  0
VERTEX
  8
CSLAYER1
  6
CONTINUOUS
 62
     7
 10
89.749652
 20
112.079025
 30
0.0
  0
VERTEX
  8
CSLAYER1
  6
CONTINUOUS
 62
     7
 10
89.654003
 20
112.163657
 30
0.0
  0
VERTEX
  8
CSLAYER1
  6
CONTINUOUS
 62
     7
 10
89.553407
 20
112.236389
 30
0.0
  0
VERTEX
  8
CSLAYER1
  6
CONTINUOUS
 62
     7
 10
89.448629
 20
112.296667
 30
0.0
  0
VERTEX
  8
CSLAYER1
  6
CONTINUOUS
 62
     7
 10
89.340468
 20
112.344033
 30
0.0
  0
VERTEX
  8
CSLAYER1
  6
CONTINUOUS
 62
     7
 10
89.229746
 20
112.378125
 30
0.0
  0
VERTEX
  8
CSLAYER1
  6
CONTINUOUS
 62
     7
 10
89.117305
 20
112.398685
 30
0.0
  0
VERTEX
  8
CSLAYER1
  6
CONTINUOUS
 62
     7
 10
89.004003
 20
112.405556
 30
0.0
  0
VERTEX
  8
CSLAYER1
  6
CONTINUOUS
 62
     7
 10
88.890700
 20
112.398685
 30
0.0
  0
VERTEX
  8
CSLAYER1
  6
CONTINUOUS
 62
     7
 10
88.778260
 20
112.378125
 30
0.0
  0
VERTEX
  8
CSLAYER1
  6
CONTINUOUS
 62
     7
 10
88.667538
 20
112.344033
 30
0.0
  0
VERTEX
  8
CSLAYER1
  6
CONTINUOUS
 62
     7
 10
88.559377
 20
112.296667
 30
0.0
  0
VERTEX
  8
CSLAYER1
  6
CONTINUOUS
 62
     7
 10
88.454599
 20
112.236389
 30
0.0
  0
VERTEX
  8
CSLAYER1
  6
CONTINUOUS
 62
     7
 10
88.354003
 20
112.163657
 30
0.0
  0
VERTEX
  8
CSLAYER1
  6
CONTINUOUS
 62
     7
 10
88.258354
 20
112.079025
 30
0.0
  0
VERTEX
  8
CSLAYER1
  6
CONTINUOUS
 62
     7
 10
88.168379
 20
111.983136
 30
0.0
  0
VERTEX
  8
CSLAYER1
  6
CONTINUOUS
 62
     7
 10
88.084764
 20
111.876721
 30
0.0
  0
VERTEX
  8
CSLAYER1
  6
CONTINUOUS
 62
     7
 10
88.008145
 20
111.760589
 30
0.0
  0
VERTEX
  8
CSLAYER1
  6
CONTINUOUS
 62
     7
 10
87.939105
 20
111.635624
 30
0.0
  0
VERTEX
  8
CSLAYER1
  6
CONTINUOUS
 62
     7
 10
87.878170
 20
111.502778
 30
0.0
  0
VERTEX
  8
CSLAYER1
  6
CONTINUOUS
 62
     7
 10
87.825803
 20
111.363061
 30
0.0
  0
VERTEX
  8
CSLAYER1
  6
CONTINUOUS
 62
     7
 10
87.782403
 20
111.217536
 30
0.0
  0
VERTEX
  8
CSLAYER1
  6
CONTINUOUS
 62
     7
 10
87.748299
 20
111.067312
 30
0.0
  0
VERTEX
  8
CSLAYER1
  6
CONTINUOUS
 62
     7
 10
87.723753
 20
110.913531
 30
0.0
  0
VERTEX
  8
CSLAYER1
  6
CONTINUOUS
 62
     7
 10
87.708950
 20
110.757365
 30
0.0
  0
VERTEX
  8
CSLAYER1
  6
CONTINUOUS
 62
     7
 10
87.704003
 20
110.600000
 30
0.0
  0
VERTEX
  8
CSLAYER1
  6
CONTINUOUS
 62
     7
 10
87.708950
 20
110.442635
 30
0.0
  0
VERTEX
  8
CSLAYER1
  6
CONTINUOUS
 62
     7
 10
87.723753
 20
110.286469
 30
0.0
  0
VERTEX
  8
CSLAYER1
  6
CONTINUOUS
 62
     7
 10
87.748299
 20
110.132688
 30
0.0
  0
VERTEX
  8
CSLAYER1
  6
CONTINUOUS
 62
     7
 10
87.782403
 20
109.982464
 30
0.0
  0
VERTEX
  8
CSLAYER1
  6
CONTINUOUS
 62
     7
 10
87.825803
 20
109.836939
 30
0.0
  0
VERTEX
  8
CSLAYER1
  6
CONTINUOUS
 62
     7
 10
87.878170
 20
109.697222
 30
0.0
  0
VERTEX
  8
CSLAYER1
  6
CONTINUOUS
 62
     7
 10
87.939105
 20
109.564376
 30
0.0
  0
VERTEX
  8
CSLAYER1
  6
CONTINUOUS
 62
     7
 10
88.008145
 20
109.439411
 30
0.0
  0
VERTEX
  8
CSLAYER1
  6
CONTINUOUS
 62
     7
 10
88.084764
 20
109.323279
 30
0.0
  0
VERTEX
  8
CSLAYER1
  6
CONTINUOUS
 62
     7
 10
88.168379
 20
109.216864
 30
0.0
  0
VERTEX
  8
CSLAYER1
  6
CONTINUOUS
 62
     7
 10
88.258354
 20
109.120975
 30
0.0
  0
VERTEX
  8
CSLAYER1
  6
CONTINUOUS
 62
     7
 10
88.354003
 20
109.036343
 30
0.0
  0
VERTEX
  8
CSLAYER1
  6
CONTINUOUS
 62
     7
 10
88.454599
 20
108.963611
 30
0.0
  0
VERTEX
  8
CSLAYER1
  6
CONTINUOUS
 62
     7
 10
88.559377
 20
108.903333
 30
0.0
  0
VERTEX
  8
CSLAYER1
  6
CONTINUOUS
 62
     7
 10
88.667538
 20
108.855967
 30
0.0
  0
VERTEX
  8
CSLAYER1
  6
CONTINUOUS
 62
     7
 10
88.778260
 20
108.821875
 30
0.0
  0
VERTEX
  8
CSLAYER1
  6
CONTINUOUS
 62
     7
 10
88.890700
 20
108.801315
 30
0.0
  0
VERTEX
  8
CSLAYER1
  6
CONTINUOUS
 62
     7
 10
89.004003
 20
108.794444
 30
0.0
  0
SEQEND
  0
ARC
  8
CSLAYER1
  6
CONTINUOUS
 62
     3
 10
87.992892
 20
105.200000
 40
1.805556
 50
-70.999198
 51
70.999198
  0
LINE
  8
CSLAYER1
  6
CONTINUOUS
 62
     3
 10
88.027337
 20
104.008366
 11
89.381565
 21
106.353957
  0
POLYLINE
  8
CSLAYER1
  6
CONTINUOUS
 62
     7
 66
     1
 10
0.0
 20
0.0
 30
0.0
  0
VERTEX
  8
CSLAYER1
  6
CONTINUOUS
 62
     7
 10
89.004003
 20
103.394444
 30
0.0
  0
VERTEX
  8
CSLAYER1
  6
CONTINUOUS
 62
     7
 10
89.117305
 20
103.401315
 30
0.0
  0
VERTEX
  8
CSLAYER1
  6
CONTINUOUS
 62
     7
 10
89.229746
 20
103.421875
 30
0.0
  0
VERTEX
  8
CSLAYER1
  6
CONTINUOUS
 62
     7
 10
89.340468
 20
103.455967
 30
0.0
  0
VERTEX
  8
CSLAYER1
  6
CONTINUOUS
 62
     7
 10
89.448629
 20
103.503333
 30
0.0
  0
VERTEX
  8
CSLAYER1
  6
CONTINUOUS
 62
     7
 10
89.553407
 20
103.563611
 30
0.0
  0
VERTEX
  8
CSLAYER1
  6
CONTINUOUS
 62
     7
 10
89.654003
 20
103.636343
 30
0.0
  0
VERTEX
  8
CSLAYER1
  6
CONTINUOUS
 62
     7
 10
89.749652
 20
103.720975
 30
0.0
  0
VERTEX
  8
CSLAYER1
  6
CONTINUOUS
 62
     7
 10
89.839627
 20
103.816864
 30
0.0
  0
VERTEX
  8
CSLAYER1
  6
CONTINUOUS
 62
     7
 10
89.923242
 20
103.923279
 30
0.0
  0
VERTEX
  8
CSLAYER1
  6
CONTINUOUS
 62
     7
 10
89.999861
 20
104.039411
 30
0.0
  0
VERTEX
  8
CSLAYER1
  6
CONTINUOUS
 62
     7
 10
90.068901
 20
104.164376
 30
0.0
  0
VERTEX
  8
CSLAYER1
  6
CONTINUOUS
 62
     7
 10
90.129836
 20
104.297222
 30
0.0
  0
VERTEX
  8
CSLAYER1
  6
CONTINUOUS
 62
     7
 10
90.182203
 20
104.436939
 30
0.0
  0
VERTEX
  8
CSLAYER1
  6
CONTINUOUS
 62
     7
 10
90.225603
 20
104.582464
 30
0.0
  0
VERTEX
  8
CSLAYER1
  6
CONTINUOUS
 62
     7
 10
90.259706
 20
104.732688
 30
0.0
  0
VERTEX
  8
CSLAYER1
  6
CONTINUOUS
 62
     7
 10
90.284253
 20
104.886469
 30
0.0
  0
VERTEX
  8
CSLAYER1
  6
CONTINUOUS
 62
     7
 10
90.299056
 20
105.042635
 30
0.0
  0
VERTEX
  8
CSLAYER1
  6
CONTINUOUS
 62
     7
 10
90.304003
 20
105.200000
 30
0.0
  0
VERTEX
  8
CSLAYER1
  6
CONTINUOUS
 62
     7
 10
90.299056
 20
105.357365
 30
0.0
  0
VERTEX
  8
CSLAYER1
  6
CONTINUOUS
 62
     7
 10
90.284253
 20
105.513531
 30
0.0
  0
VERTEX
  8
CSLAYER1
  6
CONTINUOUS
 62
     7
 10
90.259706
 20
105.667312
 30
0.0
  0
VERTEX
  8
CSLAYER1
  6
CONTINUOUS
 62
     7
 10
90.225603
 20
105.817536
 30
0.0
  0
VERTEX
  8
CSLAYER1
  6
CONTINUOUS
 62
     7
 10
90.182203
 20
105.963061
 30
0.0
  0
VERTEX
  8
CSLAYER1
  6
CONTINUOUS
 62
     7
 10
90.129836
 20
106.102778
 30
0.0
  0
VERTEX
  8
CSLAYER1
  6
CONTINUOUS
 62
     7
 10
90.068901
 20
106.235624
 30
0.0
  0
VERTEX
  8
CSLAYER1
  6
CONTINUOUS
 62
     7
 10
89.999861
 20
106.360589
 30
0.0
  0
VERTEX
  8
CSLAYER1
  6
CONTINUOUS
 62
     7
 10
89.923242
 20
106.476721
 30
0.0
  0
VERTEX
  8
CSLAYER1
  6
CONTINUOUS
 62
     7
 10
89.839627
 20
106.583136
 30
0.0
  0
VERTEX
  8
CSLAYER1
  6
CONTINUOUS
 62
     7
 10
89.749652
 20
106.679025
 30
0.0
  0
VERTEX
  8
CSLAYER1
  6
CONTINUOUS
 62
     7
 10
89.654003
 20
106.763657
 30
0.0
  0
VERTEX
  8
CSLAYER1
  6
CONTINUOUS
 62
     7
 10
89.553407
 20
106.836389
 30
0.0
  0
VERTEX
  8
CSLAYER1
  6
CONTINUOUS
 62
     7
 10
89.448629
 20
106.896667
 30
0.0
  0
VERTEX
  8
CSLAYER1
  6
CONTINUOUS
 62
     7
 10
89.340468
 20
106.944033
 30
0.0
  0
VERTEX
  8
CSLAYER1
  6
CONTINUOUS
 62
     7
 10
89.229746
 20
106.978125
 30
0.0
  0
VERTEX
  8
CSLAYER1
  6
CONTINUOUS
 62
     7
 10
89.117305
 20
106.998685
 30
0.0
  0
VERTEX
  8
CSLAYER1
  6
CONTINUOUS
 62
     7
 10
89.004003
 20
107.005556
 30
0.0
  0
VERTEX
  8
CSLAYER1
  6
CONTINUOUS
 62
     7
 10
88.890700
 20
106.998685
 30
0.0
  0
VERTEX
  8
CSLAYER1
  6
CONTINUOUS
 62
     7
 10
88.778260
 20
106.978125
 30
0.0
  0
VERTEX
  8
CSLAYER1
  6
CONTINUOUS
 62
     7
 10
88.667538
 20
106.944033
 30
0.0
  0
VERTEX
  8
CSLAYER1
  6
CONTINUOUS
 62
     7
 10
88.559377
 20
106.896667
 30
0.0
  0
VERTEX
  8
CSLAYER1
  6
CONTINUOUS
 62
     7
 10
88.454599
 20
106.836389
 30
0.0
  0
VERTEX
  8
CSLAYER1
  6
CONTINUOUS
 62
     7
 10
88.354003
 20
106.763657
 30
0.0
  0
VERTEX
  8
CSLAYER1
  6
CONTINUOUS
 62
     7
 10
88.258354
 20
106.679025
 30
0.0
  0
VERTEX
  8
CSLAYER1
  6
CONTINUOUS
 62
     7
 10
88.168379
 20
106.583136
 30
0.0
  0
VERTEX
  8
CSLAYER1
  6
CONTINUOUS
 62
     7
 10
88.084764
 20
106.476721
 30
0.0
  0
VERTEX
  8
CSLAYER1
  6
CONTINUOUS
 62
     7
 10
88.008145
 20
106.360589
 30
0.0
  0
VERTEX
  8
CSLAYER1
  6
CONTINUOUS
 62
     7
 10
87.939105
 20
106.235624
 30
0.0
  0
VERTEX
  8
CSLAYER1
  6
CONTINUOUS
 62
     7
 10
87.878170
 20
106.102778
 30
0.0
  0
VERTEX
  8
CSLAYER1
  6
CONTINUOUS
 62
     7
 10
87.825803
 20
105.963061
 30
0.0
  0
VERTEX
  8
CSLAYER1
  6
CONTINUOUS
 62
     7
 10
87.782403
 20
105.817536
 30
0.0
  0
VERTEX
  8
CSLAYER1
  6
CONTINUOUS
 62
     7
 10
87.748299
 20
105.667312
 30
0.0
  0
VERTEX
  8
CSLAYER1
  6
CONTINUOUS
 62
     7
 10
87.723753
 20
105.513531
 30
0.0
  0
VERTEX
  8
CSLAYER1
  6
CONTINUOUS
 62
     7
 10
87.708950
 20
105.357365
 30
0.0
  0
VERTEX
  8
CSLAYER1
  6
CONTINUOUS
 62
     7
 10
87.704003
 20
105.200000
 30
0.0
  0
VERTEX
  8
CSLAYER1
  6
CONTINUOUS
 62
     7
 10
87.708950
 20
105.042635
 30
0.0
  0
VERTEX
  8
CSLAYER1
  6
CONTINUOUS
 62
     7
 10
87.723753
 20
104.886469
 30
0.0
  0
VERTEX
  8
CSLAYER1
  6
CONTINUOUS
 62
     7
 10
87.748299
 20
104.732688
 30
0.0
  0
VERTEX
  8
CSLAYER1
  6
CONTINUOUS
 62
     7
 10
87.782403
 20
104.582464
 30
0.0
  0
VERTEX
  8
CSLAYER1
  6
CONTINUOUS
 62
     7
 10
87.825803
 20
104.436939
 30
0.0
  0
VERTEX
  8
CSLAYER1
  6
CONTINUOUS
 62
     7
 10
87.878170
 20
104.297222
 30
0.0
  0
VERTEX
  8
CSLAYER1
  6
CONTINUOUS
 62
     7
 10
87.939105
 20
104.164376
 30
0.0
  0
VERTEX
  8
CSLAYER1
  6
CONTINUOUS
 62
     7
 10
88.008145
 20
104.039411
 30
0.0
  0
VERTEX
  8
CSLAYER1
  6
CONTINUOUS
 62
     7
 10
88.084764
 20
103.923279
 30
0.0
  0
VERTEX
  8
CSLAYER1
  6
CONTINUOUS
 62
     7
 10
88.168379
 20
103.816864
 30
0.0
  0
VERTEX
  8
CSLAYER1
  6
CONTINUOUS
 62
     7
 10
88.258354
 20
103.720975
 30
0.0
  0
VERTEX
  8
CSLAYER1
  6
CONTINUOUS
 62
     7
 10
88.354003
 20
103.636343
 30
0.0
  0
VERTEX
  8
CSLAYER1
  6
CONTINUOUS
 62
     7
 10
88.454599
 20
103.563611
 30
0.0
  0
VERTEX
  8
CSLAYER1
  6
CONTINUOUS
 62
     7
 10
88.559377
 20
103.503333
 30
0.0
  0
VERTEX
  8
CSLAYER1
  6
CONTINUOUS
 62
     7
 10
88.667538
 20
103.455967
 30
0.0
  0
VERTEX
  8
CSLAYER1
  6
CONTINUOUS
 62
     7
 10
88.778260
 20
103.421875
 30
0.0
  0
VERTEX
  8
CSLAYER1
  6
CONTINUOUS
 62
     7
 10
88.890700
 20
103.401315
 30
0.0
  0
VERTEX
  8
CSLAYER1
  6
CONTINUOUS
 62
     7
 10
89.004003
 20
103.394444
 30
0.0
  0
SEQEND
  0
ARC
  8
CSLAYER1
  6
CONTINUOUS
 62
     3
 10
87.992892
 20
99.800000
 40
1.805556
 50
-70.999198
 51
70.999198
  0
LINE
  8
CSLAYER1
  6
CONTINUOUS
 62
     3
 10
88.027337
 20
98.608366
 11
89.381565
 21
100.953957
  0
POLYLINE
  8
CSLAYER1
  6
CONTINUOUS
 62
     7
 66
     1
 10
0.0
 20
0.0
 30
0.0
  0
VERTEX
  8
CSLAYER1
  6
CONTINUOUS
 62
     7
 10
89.004003
 20
97.994444
 30
0.0
  0
VERTEX
  8
CSLAYER1
  6
CONTINUOUS
 62
     7
 10
89.117305
 20
98.001315
 30
0.0
  0
VERTEX
  8
CSLAYER1
  6
CONTINUOUS
 62
     7
 10
89.229746
 20
98.021875
 30
0.0
  0
VERTEX
  8
CSLAYER1
  6
CONTINUOUS
 62
     7
 10
89.340468
 20
98.055967
 30
0.0
  0
VERTEX
  8
CSLAYER1
  6
CONTINUOUS
 62
     7
 10
89.448629
 20
98.103333
 30
0.0
  0
VERTEX
  8
CSLAYER1
  6
CONTINUOUS
 62
     7
 10
89.553407
 20
98.163611
 30
0.0
  0
VERTEX
  8
CSLAYER1
  6
CONTINUOUS
 62
     7
 10
89.654003
 20
98.236343
 30
0.0
  0
VERTEX
  8
CSLAYER1
  6
CONTINUOUS
 62
     7
 10
89.749652
 20
98.320975
 30
0.0
  0
VERTEX
  8
CSLAYER1
  6
CONTINUOUS
 62
     7
 10
89.839627
 20
98.416864
 30
0.0
  0
VERTEX
  8
CSLAYER1
  6
CONTINUOUS
 62
     7
 10
89.923242
 20
98.523279
 30
0.0
  0
VERTEX
  8
CSLAYER1
  6
CONTINUOUS
 62
     7
 10
89.999861
 20
98.639411
 30
0.0
  0
VERTEX
  8
CSLAYER1
  6
CONTINUOUS
 62
     7
 10
90.068901
 20
98.764376
 30
0.0
  0
VERTEX
  8
CSLAYER1
  6
CONTINUOUS
 62
     7
 10
90.129836
 20
98.897222
 30
0.0
  0
VERTEX
  8
CSLAYER1
  6
CONTINUOUS
 62
     7
 10
90.182203
 20
99.036939
 30
0.0
  0
VERTEX
  8
CSLAYER1
  6
CONTINUOUS
 62
     7
 10
90.225603
 20
99.182464
 30
0.0
  0
VERTEX
  8
CSLAYER1
  6
CONTINUOUS
 62
     7
 10
90.259706
 20
99.332688
 30
0.0
  0
VERTEX
  8
CSLAYER1
  6
CONTINUOUS
 62
     7
 10
90.284253
 20
99.486469
 30
0.0
  0
VERTEX
  8
CSLAYER1
  6
CONTINUOUS
 62
     7
 10
90.299056
 20
99.642635
 30
0.0
  0
VERTEX
  8
CSLAYER1
  6
CONTINUOUS
 62
     7
 10
90.304003
 20
99.800000
 30
0.0
  0
VERTEX
  8
CSLAYER1
  6
CONTINUOUS
 62
     7
 10
90.299056
 20
99.957365
 30
0.0
  0
VERTEX
  8
CSLAYER1
  6
CONTINUOUS
 62
     7
 10
90.284253
 20
100.113531
 30
0.0
  0
VERTEX
  8
CSLAYER1
  6
CONTINUOUS
 62
     7
 10
90.259706
 20
100.267312
 30
0.0
  0
VERTEX
  8
CSLAYER1
  6
CONTINUOUS
 62
     7
 10
90.225603
 20
100.417536
 30
0.0
  0
VERTEX
  8
CSLAYER1
  6
CONTINUOUS
 62
     7
 10
90.182203
 20
100.563061
 30
0.0
  0
VERTEX
  8
CSLAYER1
  6
CONTINUOUS
 62
     7
 10
90.129836
 20
100.702778
 30
0.0
  0
VERTEX
  8
CSLAYER1
  6
CONTINUOUS
 62
     7
 10
90.068901
 20
100.835624
 30
0.0
  0
VERTEX
  8
CSLAYER1
  6
CONTINUOUS
 62
     7
 10
89.999861
 20
100.960589
 30
0.0
  0
VERTEX
  8
CSLAYER1
  6
CONTINUOUS
 62
     7
 10
89.923242
 20
101.076721
 30
0.0
  0
VERTEX
  8
CSLAYER1
  6
CONTINUOUS
 62
     7
 10
89.839627
 20
101.183136
 30
0.0
  0
VERTEX
  8
CSLAYER1
  6
CONTINUOUS
 62
     7
 10
89.749652
 20
101.279025
 30
0.0
  0
VERTEX
  8
CSLAYER1
  6
CONTINUOUS
 62
     7
 10
89.654003
 20
101.363657
 30
0.0
  0
VERTEX
  8
CSLAYER1
  6
CONTINUOUS
 62
     7
 10
89.553407
 20
101.436389
 30
0.0
  0
VERTEX
  8
CSLAYER1
  6
CONTINUOUS
 62
     7
 10
89.448629
 20
101.496667
 30
0.0
  0
VERTEX
  8
CSLAYER1
  6
CONTINUOUS
 62
     7
 10
89.340468
 20
101.544033
 30
0.0
  0
VERTEX
  8
CSLAYER1
  6
CONTINUOUS
 62
     7
 10
89.229746
 20
101.578125
 30
0.0
  0
VERTEX
  8
CSLAYER1
  6
CONTINUOUS
 62
     7
 10
89.117305
 20
101.598685
 30
0.0
  0
VERTEX
  8
CSLAYER1
  6
CONTINUOUS
 62
     7
 10
89.004003
 20
101.605556
 30
0.0
  0
VERTEX
  8
CSLAYER1
  6
CONTINUOUS
 62
     7
 10
88.890700
 20
101.598685
 30
0.0
  0
VERTEX
  8
CSLAYER1
  6
CONTINUOUS
 62
     7
 10
88.778260
 20
101.578125
 30
0.0
  0
VERTEX
  8
CSLAYER1
  6
CONTINUOUS
 62
     7
 10
88.667538
 20
101.544033
 30
0.0
  0
VERTEX
  8
CSLAYER1
  6
CONTINUOUS
 62
     7
 10
88.559377
 20
101.496667
 30
0.0
  0
VERTEX
  8
CSLAYER1
  6
CONTINUOUS
 62
     7
 10
88.454599
 20
101.436389
 30
0.0
  0
VERTEX
  8
CSLAYER1
  6
CONTINUOUS
 62
     7
 10
88.354003
 20
101.363657
 30
0.0
  0
VERTEX
  8
CSLAYER1
  6
CONTINUOUS
 62
     7
 10
88.258354
 20
101.279025
 30
0.0
  0
VERTEX
  8
CSLAYER1
  6
CONTINUOUS
 62
     7
 10
88.168379
 20
101.183136
 30
0.0
  0
VERTEX
  8
CSLAYER1
  6
CONTINUOUS
 62
     7
 10
88.084764
 20
101.076721
 30
0.0
  0
VERTEX
  8
CSLAYER1
  6
CONTINUOUS
 62
     7
 10
88.008145
 20
100.960589
 30
0.0
  0
VERTEX
  8
CSLAYER1
  6
CONTINUOUS
 62
     7
 10
87.939105
 20
100.835624
 30
0.0
  0
VERTEX
  8
CSLAYER1
  6
CONTINUOUS
 62
     7
 10
87.878170
 20
100.702778
 30
0.0
  0
VERTEX
  8
CSLAYER1
  6
CONTINUOUS
 62
     7
 10
87.825803
 20
100.563061
 30
0.0
  0
VERTEX
  8
CSLAYER1
  6
CONTINUOUS
 62
     7
 10
87.782403
 20
100.417536
 30
0.0
  0
VERTEX
  8
CSLAYER1
  6
CONTINUOUS
 62
     7
 10
87.748299
 20
100.267312
 30
0.0
  0
VERTEX
  8
CSLAYER1
  6
CONTINUOUS
 62
     7
 10
87.723753
 20
100.113531
 30
0.0
  0
VERTEX
  8
CSLAYER1
  6
CONTINUOUS
 62
     7
 10
87.708950
 20
99.957365
 30
0.0
  0
VERTEX
  8
CSLAYER1
  6
CONTINUOUS
 62
     7
 10
87.704003
 20
99.800000
 30
0.0
  0
VERTEX
  8
CSLAYER1
  6
CONTINUOUS
 62
     7
 10
87.708950
 20
99.642635
 30
0.0
  0
VERTEX
  8
CSLAYER1
  6
CONTINUOUS
 62
     7
 10
87.723753
 20
99.486469
 30
0.0
  0
VERTEX
  8
CSLAYER1
  6
CONTINUOUS
 62
     7
 10
87.748299
 20
99.332688
 30
0.0
  0
VERTEX
  8
CSLAYER1
  6
CONTINUOUS
 62
     7
 10
87.782403
 20
99.182464
 30
0.0
  0
VERTEX
  8
CSLAYER1
  6
CONTINUOUS
 62
     7
 10
87.825803
 20
99.036939
 30
0.0
  0
VERTEX
  8
CSLAYER1
  6
CONTINUOUS
 62
     7
 10
87.878170
 20
98.897222
 30
0.0
  0
VERTEX
  8
CSLAYER1
  6
CONTINUOUS
 62
     7
 10
87.939105
 20
98.764376
 30
0.0
  0
VERTEX
  8
CSLAYER1
  6
CONTINUOUS
 62
     7
 10
88.008145
 20
98.639411
 30
0.0
  0
VERTEX
  8
CSLAYER1
  6
CONTINUOUS
 62
     7
 10
88.084764
 20
98.523279
 30
0.0
  0
VERTEX
  8
CSLAYER1
  6
CONTINUOUS
 62
     7
 10
88.168379
 20
98.416864
 30
0.0
  0
VERTEX
  8
CSLAYER1
  6
CONTINUOUS
 62
     7
 10
88.258354
 20
98.320975
 30
0.0
  0
VERTEX
  8
CSLAYER1
  6
CONTINUOUS
 62
     7
 10
88.354003
 20
98.236343
 30
0.0
  0
VERTEX
  8
CSLAYER1
  6
CONTINUOUS
 62
     7
 10
88.454599
 20
98.163611
 30
0.0
  0
VERTEX
  8
CSLAYER1
  6
CONTINUOUS
 62
     7
 10
88.559377
 20
98.103333
 30
0.0
  0
VERTEX
  8
CSLAYER1
  6
CONTINUOUS
 62
     7
 10
88.667538
 20
98.055967
 30
0.0
  0
VERTEX
  8
CSLAYER1
  6
CONTINUOUS
 62
     7
 10
88.778260
 20
98.021875
 30
0.0
  0
VERTEX
  8
CSLAYER1
  6
CONTINUOUS
 62
     7
 10
88.890700
 20
98.001315
 30
0.0
  0
VERTEX
  8
CSLAYER1
  6
CONTINUOUS
 62
     7
 10
89.004003
 20
97.994444
 30
0.0
  0
SEQEND
  0
ARC
  8
CSLAYER1
  6
CONTINUOUS
 62
     3
 10
87.992892
 20
94.400000
 40
1.805556
 50
-70.999198
 51
70.999198
  0
LINE
  8
CSLAYER1
  6
CONTINUOUS
 62
     3
 10
88.027337
 20
93.208366
 11
89.381565
 21
95.553957
  0
POLYLINE
  8
CSLAYER1
  6
CONTINUOUS
 62
     7
 66
     1
 10
0.0
 20
0.0
 30
0.0
  0
VERTEX
  8
CSLAYER1
  6
CONTINUOUS
 62
     7
 10
89.004003
 20
92.594444
 30
0.0
  0
VERTEX
  8
CSLAYER1
  6
CONTINUOUS
 62
     7
 10
89.117305
 20
92.601315
 30
0.0
  0
VERTEX
  8
CSLAYER1
  6
CONTINUOUS
 62
     7
 10
89.229746
 20
92.621875
 30
0.0
  0
VERTEX
  8
CSLAYER1
  6
CONTINUOUS
 62
     7
 10
89.340468
 20
92.655967
 30
0.0
  0
VERTEX
  8
CSLAYER1
  6
CONTINUOUS
 62
     7
 10
89.448629
 20
92.703333
 30
0.0
  0
VERTEX
  8
CSLAYER1
  6
CONTINUOUS
 62
     7
 10
89.553407
 20
92.763611
 30
0.0
  0
VERTEX
  8
CSLAYER1
  6
CONTINUOUS
 62
     7
 10
89.654003
 20
92.836343
 30
0.0
  0
VERTEX
  8
CSLAYER1
  6
CONTINUOUS
 62
     7
 10
89.749652
 20
92.920975
 30
0.0
  0
VERTEX
  8
CSLAYER1
  6
CONTINUOUS
 62
     7
 10
89.839627
 20
93.016864
 30
0.0
  0
VERTEX
  8
CSLAYER1
  6
CONTINUOUS
 62
     7
 10
89.923242
 20
93.123279
 30
0.0
  0
VERTEX
  8
CSLAYER1
  6
CONTINUOUS
 62
     7
 10
89.999861
 20
93.239411
 30
0.0
  0
VERTEX
  8
CSLAYER1
  6
CONTINUOUS
 62
     7
 10
90.068901
 20
93.364376
 30
0.0
  0
VERTEX
  8
CSLAYER1
  6
CONTINUOUS
 62
     7
 10
90.129836
 20
93.497222
 30
0.0
  0
VERTEX
  8
CSLAYER1
  6
CONTINUOUS
 62
     7
 10
90.182203
 20
93.636939
 30
0.0
  0
VERTEX
  8
CSLAYER1
  6
CONTINUOUS
 62
     7
 10
90.225603
 20
93.782464
 30
0.0
  0
VERTEX
  8
CSLAYER1
  6
CONTINUOUS
 62
     7
 10
90.259706
 20
93.932688
 30
0.0
  0
VERTEX
  8
CSLAYER1
  6
CONTINUOUS
 62
     7
 10
90.284253
 20
94.086469
 30
0.0
  0
VERTEX
  8
CSLAYER1
  6
CONTINUOUS
 62
     7
 10
90.299056
 20
94.242635
 30
0.0
  0
VERTEX
  8
CSLAYER1
  6
CONTINUOUS
 62
     7
 10
90.304003
 20
94.400000
 30
0.0
  0
VERTEX
  8
CSLAYER1
  6
CONTINUOUS
 62
     7
 10
90.299056
 20
94.557365
 30
0.0
  0
VERTEX
  8
CSLAYER1
  6
CONTINUOUS
 62
     7
 10
90.284253
 20
94.713531
 30
0.0
  0
VERTEX
  8
CSLAYER1
  6
CONTINUOUS
 62
     7
 10
90.259706
 20
94.867312
 30
0.0
  0
VERTEX
  8
CSLAYER1
  6
CONTINUOUS
 62
     7
 10
90.225603
 20
95.017536
 30
0.0
  0
VERTEX
  8
CSLAYER1
  6
CONTINUOUS
 62
     7
 10
90.182203
 20
95.163061
 30
0.0
  0
VERTEX
  8
CSLAYER1
  6
CONTINUOUS
 62
     7
 10
90.129836
 20
95.302778
 30
0.0
  0
VERTEX
  8
CSLAYER1
  6
CONTINUOUS
 62
     7
 10
90.068901
 20
95.435624
 30
0.0
  0
VERTEX
  8
CSLAYER1
  6
CONTINUOUS
 62
     7
 10
89.999861
 20
95.560589
 30
0.0
  0
VERTEX
  8
CSLAYER1
  6
CONTINUOUS
 62
     7
 10
89.923242
 20
95.676721
 30
0.0
  0
VERTEX
  8
CSLAYER1
  6
CONTINUOUS
 62
     7
 10
89.839627
 20
95.783136
 30
0.0
  0
VERTEX
  8
CSLAYER1
  6
CONTINUOUS
 62
     7
 10
89.749652
 20
95.879025
 30
0.0
  0
VERTEX
  8
CSLAYER1
  6
CONTINUOUS
 62
     7
 10
89.654003
 20
95.963657
 30
0.0
  0
VERTEX
  8
CSLAYER1
  6
CONTINUOUS
 62
     7
 10
89.553407
 20
96.036389
 30
0.0
  0
VERTEX
  8
CSLAYER1
  6
CONTINUOUS
 62
     7
 10
89.448629
 20
96.096667
 30
0.0
  0
VERTEX
  8
CSLAYER1
  6
CONTINUOUS
 62
     7
 10
89.340468
 20
96.144033
 30
0.0
  0
VERTEX
  8
CSLAYER1
  6
CONTINUOUS
 62
     7
 10
89.229746
 20
96.178125
 30
0.0
  0
VERTEX
  8
CSLAYER1
  6
CONTINUOUS
 62
     7
 10
89.117305
 20
96.198685
 30
0.0
  0
VERTEX
  8
CSLAYER1
  6
CONTINUOUS
 62
     7
 10
89.004003
 20
96.205556
 30
0.0
  0
VERTEX
  8
CSLAYER1
  6
CONTINUOUS
 62
     7
 10
88.890700
 20
96.198685
 30
0.0
  0
VERTEX
  8
CSLAYER1
  6
CONTINUOUS
 62
     7
 10
88.778260
 20
96.178125
 30
0.0
  0
VERTEX
  8
CSLAYER1
  6
CONTINUOUS
 62
     7
 10
88.667538
 20
96.144033
 30
0.0
  0
VERTEX
  8
CSLAYER1
  6
CONTINUOUS
 62
     7
 10
88.559377
 20
96.096667
 30
0.0
  0
VERTEX
  8
CSLAYER1
  6
CONTINUOUS
 62
     7
 10
88.454599
 20
96.036389
 30
0.0
  0
VERTEX
  8
CSLAYER1
  6
CONTINUOUS
 62
     7
 10
88.354003
 20
95.963657
 30
0.0
  0
VERTEX
  8
CSLAYER1
  6
CONTINUOUS
 62
     7
 10
88.258354
 20
95.879025
 30
0.0
  0
VERTEX
  8
CSLAYER1
  6
CONTINUOUS
 62
     7
 10
88.168379
 20
95.783136
 30
0.0
  0
VERTEX
  8
CSLAYER1
  6
CONTINUOUS
 62
     7
 10
88.084764
 20
95.676721
 30
0.0
  0
VERTEX
  8
CSLAYER1
  6
CONTINUOUS
 62
     7
 10
88.008145
 20
95.560589
 30
0.0
  0
VERTEX
  8
CSLAYER1
  6
CONTINUOUS
 62
     7
 10
87.939105
 20
95.435624
 30
0.0
  0
VERTEX
  8
CSLAYER1
  6
CONTINUOUS
 62
     7
 10
87.878170
 20
95.302778
 30
0.0
  0
VERTEX
  8
CSLAYER1
  6
CONTINUOUS
 62
     7
 10
87.825803
 20
95.163061
 30
0.0
  0
VERTEX
  8
CSLAYER1
  6
CONTINUOUS
 62
     7
 10
87.782403
 20
95.017536
 30
0.0
  0
VERTEX
  8
CSLAYER1
  6
CONTINUOUS
 62
     7
 10
87.748299
 20
94.867312
 30
0.0
  0
VERTEX
  8
CSLAYER1
  6
CONTINUOUS
 62
     7
 10
87.723753
 20
94.713531
 30
0.0
  0
VERTEX
  8
CSLAYER1
  6
CONTINUOUS
 62
     7
 10
87.708950
 20
94.557365
 30
0.0
  0
VERTEX
  8
CSLAYER1
  6
CONTINUOUS
 62
     7
 10
87.704003
 20
94.400000
 30
0.0
  0
VERTEX
  8
CSLAYER1
  6
CONTINUOUS
 62
     7
 10
87.708950
 20
94.242635
 30
0.0
  0
VERTEX
  8
CSLAYER1
  6
CONTINUOUS
 62
     7
 10
87.723753
 20
94.086469
 30
0.0
  0
VERTEX
  8
CSLAYER1
  6
CONTINUOUS
 62
     7
 10
87.748299
 20
93.932688
 30
0.0
  0
VERTEX
  8
CSLAYER1
  6
CONTINUOUS
 62
     7
 10
87.782403
 20
93.782464
 30
0.0
  0
VERTEX
  8
CSLAYER1
  6
CONTINUOUS
 62
     7
 10
87.825803
 20
93.636939
 30
0.0
  0
VERTEX
  8
CSLAYER1
  6
CONTINUOUS
 62
     7
 10
87.878170
 20
93.497222
 30
0.0
  0
VERTEX
  8
CSLAYER1
  6
CONTINUOUS
 62
     7
 10
87.939105
 20
93.364376
 30
0.0
  0
VERTEX
  8
CSLAYER1
  6
CONTINUOUS
 62
     7
 10
88.008145
 20
93.239411
 30
0.0
  0
VERTEX
  8
CSLAYER1
  6
CONTINUOUS
 62
     7
 10
88.084764
 20
93.123279
 30
0.0
  0
VERTEX
  8
CSLAYER1
  6
CONTINUOUS
 62
     7
 10
88.168379
 20
93.016864
 30
0.0
  0
VERTEX
  8
CSLAYER1
  6
CONTINUOUS
 62
     7
 10
88.258354
 20
92.920975
 30
0.0
  0
VERTEX
  8
CSLAYER1
  6
CONTINUOUS
 62
     7
 10
88.354003
 20
92.836343
 30
0.0
  0
VERTEX
  8
CSLAYER1
  6
CONTINUOUS
 62
     7
 10
88.454599
 20
92.763611
 30
0.0
  0
VERTEX
  8
CSLAYER1
  6
CONTINUOUS
 62
     7
 10
88.559377
 20
92.703333
 30
0.0
  0
VERTEX
  8
CSLAYER1
  6
CONTINUOUS
 62
     7
 10
88.667538
 20
92.655967
 30
0.0
  0
VERTEX
  8
CSLAYER1
  6
CONTINUOUS
 62
     7
 10
88.778260
 20
92.621875
 30
0.0
  0
VERTEX
  8
CSLAYER1
  6
CONTINUOUS
 62
     7
 10
88.890700
 20
92.601315
 30
0.0
  0
VERTEX
  8
CSLAYER1
  6
CONTINUOUS
 62
     7
 10
89.004003
 20
92.594444
 30
0.0
  0
SEQEND
  0
ARC
  8
CSLAYER1
  6
CONTINUOUS
 62
     3
 10
87.992892
 20
89.000000
 40
1.805556
 50
-70.999198
 51
70.999198
  0
LINE
  8
CSLAYER1
  6
CONTINUOUS
 62
     3
 10
88.027337
 20
87.808366
 11
89.381565
 21
90.153957
  0
POLYLINE
  8
CSLAYER1
  6
CONTINUOUS
 62
     7
 66
     1
 10
0.0
 20
0.0
 30
0.0
  0
VERTEX
  8
CSLAYER1
  6
CONTINUOUS
 62
     7
 10
89.004003
 20
87.194444
 30
0.0
  0
VERTEX
  8
CSLAYER1
  6
CONTINUOUS
 62
     7
 10
89.117305
 20
87.201315
 30
0.0
  0
VERTEX
  8
CSLAYER1
  6
CONTINUOUS
 62
     7
 10
89.229746
 20
87.221875
 30
0.0
  0
VERTEX
  8
CSLAYER1
  6
CONTINUOUS
 62
     7
 10
89.340468
 20
87.255967
 30
0.0
  0
VERTEX
  8
CSLAYER1
  6
CONTINUOUS
 62
     7
 10
89.448629
 20
87.303333
 30
0.0
  0
VERTEX
  8
CSLAYER1
  6
CONTINUOUS
 62
     7
 10
89.553407
 20
87.363611
 30
0.0
  0
VERTEX
  8
CSLAYER1
  6
CONTINUOUS
 62
     7
 10
89.654003
 20
87.436343
 30
0.0
  0
VERTEX
  8
CSLAYER1
  6
CONTINUOUS
 62
     7
 10
89.749652
 20
87.520975
 30
0.0
  0
VERTEX
  8
CSLAYER1
  6
CONTINUOUS
 62
     7
 10
89.839627
 20
87.616864
 30
0.0
  0
VERTEX
  8
CSLAYER1
  6
CONTINUOUS
 62
     7
 10
89.923242
 20
87.723279
 30
0.0
  0
VERTEX
  8
CSLAYER1
  6
CONTINUOUS
 62
     7
 10
89.999861
 20
87.839411
 30
0.0
  0
VERTEX
  8
CSLAYER1
  6
CONTINUOUS
 62
     7
 10
90.068901
 20
87.964376
 30
0.0
  0
VERTEX
  8
CSLAYER1
  6
CONTINUOUS
 62
     7
 10
90.129836
 20
88.097222
 30
0.0
  0
VERTEX
  8
CSLAYER1
  6
CONTINUOUS
 62
     7
 10
90.182203
 20
88.236939
 30
0.0
  0
VERTEX
  8
CSLAYER1
  6
CONTINUOUS
 62
     7
 10
90.225603
 20
88.382464
 30
0.0
  0
VERTEX
  8
CSLAYER1
  6
CONTINUOUS
 62
     7
 10
90.259706
 20
88.532688
 30
0.0
  0
VERTEX
  8
CSLAYER1
  6
CONTINUOUS
 62
     7
 10
90.284253
 20
88.686469
 30
0.0
  0
VERTEX
  8
CSLAYER1
  6
CONTINUOUS
 62
     7
 10
90.299056
 20
88.842635
 30
0.0
  0
VERTEX
  8
CSLAYER1
  6
CONTINUOUS
 62
     7
 10
90.304003
 20
89.000000
 30
0.0
  0
VERTEX
  8
CSLAYER1
  6
CONTINUOUS
 62
     7
 10
90.299056
 20
89.157365
 30
0.0
  0
VERTEX
  8
CSLAYER1
  6
CONTINUOUS
 62
     7
 10
90.284253
 20
89.313531
 30
0.0
  0
VERTEX
  8
CSLAYER1
  6
CONTINUOUS
 62
     7
 10
90.259706
 20
89.467312
 30
0.0
  0
VERTEX
  8
CSLAYER1
  6
CONTINUOUS
 62
     7
 10
90.225603
 20
89.617536
 30
0.0
  0
VERTEX
  8
CSLAYER1
  6
CONTINUOUS
 62
     7
 10
90.182203
 20
89.763061
 30
0.0
  0
VERTEX
  8
CSLAYER1
  6
CONTINUOUS
 62
     7
 10
90.129836
 20
89.902778
 30
0.0
  0
VERTEX
  8
CSLAYER1
  6
CONTINUOUS
 62
     7
 10
90.068901
 20
90.035624
 30
0.0
  0
VERTEX
  8
CSLAYER1
  6
CONTINUOUS
 62
     7
 10
89.999861
 20
90.160589
 30
0.0
  0
VERTEX
  8
CSLAYER1
  6
CONTINUOUS
 62
     7
 10
89.923242
 20
90.276721
 30
0.0
  0
VERTEX
  8
CSLAYER1
  6
CONTINUOUS
 62
     7
 10
89.839627
 20
90.383136
 30
0.0
  0
VERTEX
  8
CSLAYER1
  6
CONTINUOUS
 62
     7
 10
89.749652
 20
90.479025
 30
0.0
  0
VERTEX
  8
CSLAYER1
  6
CONTINUOUS
 62
     7
 10
89.654003
 20
90.563657
 30
0.0
  0
VERTEX
  8
CSLAYER1
  6
CONTINUOUS
 62
     7
 10
89.553407
 20
90.636389
 30
0.0
  0
VERTEX
  8
CSLAYER1
  6
CONTINUOUS
 62
     7
 10
89.448629
 20
90.696667
 30
0.0
  0
VERTEX
  8
CSLAYER1
  6
CONTINUOUS
 62
     7
 10
89.340468
 20
90.744033
 30
0.0
  0
VERTEX
  8
CSLAYER1
  6
CONTINUOUS
 62
     7
 10
89.229746
 20
90.778125
 30
0.0
  0
VERTEX
  8
CSLAYER1
  6
CONTINUOUS
 62
     7
 10
89.117305
 20
90.798685
 30
0.0
  0
VERTEX
  8
CSLAYER1
  6
CONTINUOUS
 62
     7
 10
89.004003
 20
90.805556
 30
0.0
  0
VERTEX
  8
CSLAYER1
  6
CONTINUOUS
 62
     7
 10
88.890700
 20
90.798685
 30
0.0
  0
VERTEX
  8
CSLAYER1
  6
CONTINUOUS
 62
     7
 10
88.778260
 20
90.778125
 30
0.0
  0
VERTEX
  8
CSLAYER1
  6
CONTINUOUS
 62
     7
 10
88.667538
 20
90.744033
 30
0.0
  0
VERTEX
  8
CSLAYER1
  6
CONTINUOUS
 62
     7
 10
88.559377
 20
90.696667
 30
0.0
  0
VERTEX
  8
CSLAYER1
  6
CONTINUOUS
 62
     7
 10
88.454599
 20
90.636389
 30
0.0
  0
VERTEX
  8
CSLAYER1
  6
CONTINUOUS
 62
     7
 10
88.354003
 20
90.563657
 30
0.0
  0
VERTEX
  8
CSLAYER1
  6
CONTINUOUS
 62
     7
 10
88.258354
 20
90.479025
 30
0.0
  0
VERTEX
  8
CSLAYER1
  6
CONTINUOUS
 62
     7
 10
88.168379
 20
90.383136
 30
0.0
  0
VERTEX
  8
CSLAYER1
  6
CONTINUOUS
 62
     7
 10
88.084764
 20
90.276721
 30
0.0
  0
VERTEX
  8
CSLAYER1
  6
CONTINUOUS
 62
     7
 10
88.008145
 20
90.160589
 30
0.0
  0
VERTEX
  8
CSLAYER1
  6
CONTINUOUS
 62
     7
 10
87.939105
 20
90.035624
 30
0.0
  0
VERTEX
  8
CSLAYER1
  6
CONTINUOUS
 62
     7
 10
87.878170
 20
89.902778
 30
0.0
  0
VERTEX
  8
CSLAYER1
  6
CONTINUOUS
 62
     7
 10
87.825803
 20
89.763061
 30
0.0
  0
VERTEX
  8
CSLAYER1
  6
CONTINUOUS
 62
     7
 10
87.782403
 20
89.617536
 30
0.0
  0
VERTEX
  8
CSLAYER1
  6
CONTINUOUS
 62
     7
 10
87.748299
 20
89.467312
 30
0.0
  0
VERTEX
  8
CSLAYER1
  6
CONTINUOUS
 62
     7
 10
87.723753
 20
89.313531
 30
0.0
  0
VERTEX
  8
CSLAYER1
  6
CONTINUOUS
 62
     7
 10
87.708950
 20
89.157365
 30
0.0
  0
VERTEX
  8
CSLAYER1
  6
CONTINUOUS
 62
     7
 10
87.704003
 20
89.000000
 30
0.0
  0
VERTEX
  8
CSLAYER1
  6
CONTINUOUS
 62
     7
 10
87.708950
 20
88.842635
 30
0.0
  0
VERTEX
  8
CSLAYER1
  6
CONTINUOUS
 62
     7
 10
87.723753
 20
88.686469
 30
0.0
  0
VERTEX
  8
CSLAYER1
  6
CONTINUOUS
 62
     7
 10
87.748299
 20
88.532688
 30
0.0
  0
VERTEX
  8
CSLAYER1
  6
CONTINUOUS
 62
     7
 10
87.782403
 20
88.382464
 30
0.0
  0
VERTEX
  8
CSLAYER1
  6
CONTINUOUS
 62
     7
 10
87.825803
 20
88.236939
 30
0.0
  0
VERTEX
  8
CSLAYER1
  6
CONTINUOUS
 62
     7
 10
87.878170
 20
88.097222
 30
0.0
  0
VERTEX
  8
CSLAYER1
  6
CONTINUOUS
 62
     7
 10
87.939105
 20
87.964376
 30
0.0
  0
VERTEX
  8
CSLAYER1
  6
CONTINUOUS
 62
     7
 10
88.008145
 20
87.839411
 30
0.0
  0
VERTEX
  8
CSLAYER1
  6
CONTINUOUS
 62
     7
 10
88.084764
 20
87.723279
 30
0.0
  0
VERTEX
  8
CSLAYER1
  6
CONTINUOUS
 62
     7
 10
88.168379
 20
87.616864
 30
0.0
  0
VERTEX
  8
CSLAYER1
  6
CONTINUOUS
 62
     7
 10
88.258354
 20
87.520975
 30
0.0
  0
VERTEX
  8
CSLAYER1
  6
CONTINUOUS
 62
     7
 10
88.354003
 20
87.436343
 30
0.0
  0
VERTEX
  8
CSLAYER1
  6
CONTINUOUS
 62
     7
 10
88.454599
 20
87.363611
 30
0.0
  0
VERTEX
  8
CSLAYER1
  6
CONTINUOUS
 62
     7
 10
88.559377
 20
87.303333
 30
0.0
  0
VERTEX
  8
CSLAYER1
  6
CONTINUOUS
 62
     7
 10
88.667538
 20
87.255967
 30
0.0
  0
VERTEX
  8
CSLAYER1
  6
CONTINUOUS
 62
     7
 10
88.778260
 20
87.221875
 30
0.0
  0
VERTEX
  8
CSLAYER1
  6
CONTINUOUS
 62
     7
 10
88.890700
 20
87.201315
 30
0.0
  0
VERTEX
  8
CSLAYER1
  6
CONTINUOUS
 62
     7
 10
89.004003
 20
87.194444
 30
0.0
  0
SEQEND
  0
ARC
  8
CSLAYER1
  6
CONTINUOUS
 62
     3
 10
87.992892
 20
83.600000
 40
1.805556
 50
-70.999198
 51
70.999198
  0
LINE
  8
CSLAYER1
  6
CONTINUOUS
 62
     3
 10
88.027337
 20
82.408366
 11
89.381565
 21
84.753957
  0
POLYLINE
  8
CSLAYER1
  6
CONTINUOUS
 62
     7
 66
     1
 10
0.0
 20
0.0
 30
0.0
  0
VERTEX
  8
CSLAYER1
  6
CONTINUOUS
 62
     7
 10
89.004003
 20
81.794444
 30
0.0
  0
VERTEX
  8
CSLAYER1
  6
CONTINUOUS
 62
     7
 10
89.117305
 20
81.801315
 30
0.0
  0
VERTEX
  8
CSLAYER1
  6
CONTINUOUS
 62
     7
 10
89.229746
 20
81.821875
 30
0.0
  0
VERTEX
  8
CSLAYER1
  6
CONTINUOUS
 62
     7
 10
89.340468
 20
81.855967
 30
0.0
  0
VERTEX
  8
CSLAYER1
  6
CONTINUOUS
 62
     7
 10
89.448629
 20
81.903333
 30
0.0
  0
VERTEX
  8
CSLAYER1
  6
CONTINUOUS
 62
     7
 10
89.553407
 20
81.963611
 30
0.0
  0
VERTEX
  8
CSLAYER1
  6
CONTINUOUS
 62
     7
 10
89.654003
 20
82.036343
 30
0.0
  0
VERTEX
  8
CSLAYER1
  6
CONTINUOUS
 62
     7
 10
89.749652
 20
82.120975
 30
0.0
  0
VERTEX
  8
CSLAYER1
  6
CONTINUOUS
 62
     7
 10
89.839627
 20
82.216864
 30
0.0
  0
VERTEX
  8
CSLAYER1
  6
CONTINUOUS
 62
     7
 10
89.923242
 20
82.323279
 30
0.0
  0
VERTEX
  8
CSLAYER1
  6
CONTINUOUS
 62
     7
 10
89.999861
 20
82.439411
 30
0.0
  0
VERTEX
  8
CSLAYER1
  6
CONTINUOUS
 62
     7
 10
90.068901
 20
82.564376
 30
0.0
  0
VERTEX
  8
CSLAYER1
  6
CONTINUOUS
 62
     7
 10
90.129836
 20
82.697222
 30
0.0
  0
VERTEX
  8
CSLAYER1
  6
CONTINUOUS
 62
     7
 10
90.182203
 20
82.836939
 30
0.0
  0
VERTEX
  8
CSLAYER1
  6
CONTINUOUS
 62
     7
 10
90.225603
 20
82.982464
 30
0.0
  0
VERTEX
  8
CSLAYER1
  6
CONTINUOUS
 62
     7
 10
90.259706
 20
83.132688
 30
0.0
  0
VERTEX
  8
CSLAYER1
  6
CONTINUOUS
 62
     7
 10
90.284253
 20
83.286469
 30
0.0
  0
VERTEX
  8
CSLAYER1
  6
CONTINUOUS
 62
     7
 10
90.299056
 20
83.442635
 30
0.0
  0
VERTEX
  8
CSLAYER1
  6
CONTINUOUS
 62
     7
 10
90.304003
 20
83.600000
 30
0.0
  0
VERTEX
  8
CSLAYER1
  6
CONTINUOUS
 62
     7
 10
90.299056
 20
83.757365
 30
0.0
  0
VERTEX
  8
CSLAYER1
  6
CONTINUOUS
 62
     7
 10
90.284253
 20
83.913531
 30
0.0
  0
VERTEX
  8
CSLAYER1
  6
CONTINUOUS
 62
     7
 10
90.259706
 20
84.067312
 30
0.0
  0
VERTEX
  8
CSLAYER1
  6
CONTINUOUS
 62
     7
 10
90.225603
 20
84.217536
 30
0.0
  0
VERTEX
  8
CSLAYER1
  6
CONTINUOUS
 62
     7
 10
90.182203
 20
84.363061
 30
0.0
  0
VERTEX
  8
CSLAYER1
  6
CONTINUOUS
 62
     7
 10
90.129836
 20
84.502778
 30
0.0
  0
VERTEX
  8
CSLAYER1
  6
CONTINUOUS
 62
     7
 10
90.068901
 20
84.635624
 30
0.0
  0
VERTEX
  8
CSLAYER1
  6
CONTINUOUS
 62
     7
 10
89.999861
 20
84.760589
 30
0.0
  0
VERTEX
  8
CSLAYER1
  6
CONTINUOUS
 62
     7
 10
89.923242
 20
84.876721
 30
0.0
  0
VERTEX
  8
CSLAYER1
  6
CONTINUOUS
 62
     7
 10
89.839627
 20
84.983136
 30
0.0
  0
VERTEX
  8
CSLAYER1
  6
CONTINUOUS
 62
     7
 10
89.749652
 20
85.079025
 30
0.0
  0
VERTEX
  8
CSLAYER1
  6
CONTINUOUS
 62
     7
 10
89.654003
 20
85.163657
 30
0.0
  0
VERTEX
  8
CSLAYER1
  6
CONTINUOUS
 62
     7
 10
89.553407
 20
85.236389
 30
0.0
  0
VERTEX
  8
CSLAYER1
  6
CONTINUOUS
 62
     7
 10
89.448629
 20
85.296667
 30
0.0
  0
VERTEX
  8
CSLAYER1
  6
CONTINUOUS
 62
     7
 10
89.340468
 20
85.344033
 30
0.0
  0
VERTEX
  8
CSLAYER1
  6
CONTINUOUS
 62
     7
 10
89.229746
 20
85.378125
 30
0.0
  0
VERTEX
  8
CSLAYER1
  6
CONTINUOUS
 62
     7
 10
89.117305
 20
85.398685
 30
0.0
  0
VERTEX
  8
CSLAYER1
  6
CONTINUOUS
 62
     7
 10
89.004003
 20
85.405556
 30
0.0
  0
VERTEX
  8
CSLAYER1
  6
CONTINUOUS
 62
     7
 10
88.890700
 20
85.398685
 30
0.0
  0
VERTEX
  8
CSLAYER1
  6
CONTINUOUS
 62
     7
 10
88.778260
 20
85.378125
 30
0.0
  0
VERTEX
  8
CSLAYER1
  6
CONTINUOUS
 62
     7
 10
88.667538
 20
85.344033
 30
0.0
  0
VERTEX
  8
CSLAYER1
  6
CONTINUOUS
 62
     7
 10
88.559377
 20
85.296667
 30
0.0
  0
VERTEX
  8
CSLAYER1
  6
CONTINUOUS
 62
     7
 10
88.454599
 20
85.236389
 30
0.0
  0
VERTEX
  8
CSLAYER1
  6
CONTINUOUS
 62
     7
 10
88.354003
 20
85.163657
 30
0.0
  0
VERTEX
  8
CSLAYER1
  6
CONTINUOUS
 62
     7
 10
88.258354
 20
85.079025
 30
0.0
  0
VERTEX
  8
CSLAYER1
  6
CONTINUOUS
 62
     7
 10
88.168379
 20
84.983136
 30
0.0
  0
VERTEX
  8
CSLAYER1
  6
CONTINUOUS
 62
     7
 10
88.084764
 20
84.876721
 30
0.0
  0
VERTEX
  8
CSLAYER1
  6
CONTINUOUS
 62
     7
 10
88.008145
 20
84.760589
 30
0.0
  0
VERTEX
  8
CSLAYER1
  6
CONTINUOUS
 62
     7
 10
87.939105
 20
84.635624
 30
0.0
  0
VERTEX
  8
CSLAYER1
  6
CONTINUOUS
 62
     7
 10
87.878170
 20
84.502778
 30
0.0
  0
VERTEX
  8
CSLAYER1
  6
CONTINUOUS
 62
     7
 10
87.825803
 20
84.363061
 30
0.0
  0
VERTEX
  8
CSLAYER1
  6
CONTINUOUS
 62
     7
 10
87.782403
 20
84.217536
 30
0.0
  0
VERTEX
  8
CSLAYER1
  6
CONTINUOUS
 62
     7
 10
87.748299
 20
84.067312
 30
0.0
  0
VERTEX
  8
CSLAYER1
  6
CONTINUOUS
 62
     7
 10
87.723753
 20
83.913531
 30
0.0
  0
VERTEX
  8
CSLAYER1
  6
CONTINUOUS
 62
     7
 10
87.708950
 20
83.757365
 30
0.0
  0
VERTEX
  8
CSLAYER1
  6
CONTINUOUS
 62
     7
 10
87.704003
 20
83.600000
 30
0.0
  0
VERTEX
  8
CSLAYER1
  6
CONTINUOUS
 62
     7
 10
87.708950
 20
83.442635
 30
0.0
  0
VERTEX
  8
CSLAYER1
  6
CONTINUOUS
 62
     7
 10
87.723753
 20
83.286469
 30
0.0
  0
VERTEX
  8
CSLAYER1
  6
CONTINUOUS
 62
     7
 10
87.748299
 20
83.132688
 30
0.0
  0
VERTEX
  8
CSLAYER1
  6
CONTINUOUS
 62
     7
 10
87.782403
 20
82.982464
 30
0.0
  0
VERTEX
  8
CSLAYER1
  6
CONTINUOUS
 62
     7
 10
87.825803
 20
82.836939
 30
0.0
  0
VERTEX
  8
CSLAYER1
  6
CONTINUOUS
 62
     7
 10
87.878170
 20
82.697222
 30
0.0
  0
VERTEX
  8
CSLAYER1
  6
CONTINUOUS
 62
     7
 10
87.939105
 20
82.564376
 30
0.0
  0
VERTEX
  8
CSLAYER1
  6
CONTINUOUS
 62
     7
 10
88.008145
 20
82.439411
 30
0.0
  0
VERTEX
  8
CSLAYER1
  6
CONTINUOUS
 62
     7
 10
88.084764
 20
82.323279
 30
0.0
  0
VERTEX
  8
CSLAYER1
  6
CONTINUOUS
 62
     7
 10
88.168379
 20
82.216864
 30
0.0
  0
VERTEX
  8
CSLAYER1
  6
CONTINUOUS
 62
     7
 10
88.258354
 20
82.120975
 30
0.0
  0
VERTEX
  8
CSLAYER1
  6
CONTINUOUS
 62
     7
 10
88.354003
 20
82.036343
 30
0.0
  0
VERTEX
  8
CSLAYER1
  6
CONTINUOUS
 62
     7
 10
88.454599
 20
81.963611
 30
0.0
  0
VERTEX
  8
CSLAYER1
  6
CONTINUOUS
 62
     7
 10
88.559377
 20
81.903333
 30
0.0
  0
VERTEX
  8
CSLAYER1
  6
CONTINUOUS
 62
     7
 10
88.667538
 20
81.855967
 30
0.0
  0
VERTEX
  8
CSLAYER1
  6
CONTINUOUS
 62
     7
 10
88.778260
 20
81.821875
 30
0.0
  0
VERTEX
  8
CSLAYER1
  6
CONTINUOUS
 62
     7
 10
88.890700
 20
81.801315
 30
0.0
  0
VERTEX
  8
CSLAYER1
  6
CONTINUOUS
 62
     7
 10
89.004003
 20
81.794444
 30
0.0
  0
SEQEND
  0
ARC
  8
CSLAYER1
  6
CONTINUOUS
 62
     3
 10
87.992892
 20
78.200000
 40
1.805556
 50
-70.999198
 51
70.999198
  0
LINE
  8
CSLAYER1
  6
CONTINUOUS
 62
     3
 10
88.027337
 20
77.008366
 11
89.381565
 21
79.353957
  0
POLYLINE
  8
CSLAYER1
  6
CONTINUOUS
 62
     7
 66
     1
 10
0.0
 20
0.0
 30
0.0
  0
VERTEX
  8
CSLAYER1
  6
CONTINUOUS
 62
     7
 10
89.004003
 20
76.394444
 30
0.0
  0
VERTEX
  8
CSLAYER1
  6
CONTINUOUS
 62
     7
 10
89.117305
 20
76.401315
 30
0.0
  0
VERTEX
  8
CSLAYER1
  6
CONTINUOUS
 62
     7
 10
89.229746
 20
76.421875
 30
0.0
  0
VERTEX
  8
CSLAYER1
  6
CONTINUOUS
 62
     7
 10
89.340468
 20
76.455967
 30
0.0
  0
VERTEX
  8
CSLAYER1
  6
CONTINUOUS
 62
     7
 10
89.448629
 20
76.503333
 30
0.0
  0
VERTEX
  8
CSLAYER1
  6
CONTINUOUS
 62
     7
 10
89.553407
 20
76.563611
 30
0.0
  0
VERTEX
  8
CSLAYER1
  6
CONTINUOUS
 62
     7
 10
89.654003
 20
76.636343
 30
0.0
  0
VERTEX
  8
CSLAYER1
  6
CONTINUOUS
 62
     7
 10
89.749652
 20
76.720975
 30
0.0
  0
VERTEX
  8
CSLAYER1
  6
CONTINUOUS
 62
     7
 10
89.839627
 20
76.816864
 30
0.0
  0
VERTEX
  8
CSLAYER1
  6
CONTINUOUS
 62
     7
 10
89.923242
 20
76.923279
 30
0.0
  0
VERTEX
  8
CSLAYER1
  6
CONTINUOUS
 62
     7
 10
89.999861
 20
77.039411
 30
0.0
  0
VERTEX
  8
CSLAYER1
  6
CONTINUOUS
 62
     7
 10
90.068901
 20
77.164376
 30
0.0
  0
VERTEX
  8
CSLAYER1
  6
CONTINUOUS
 62
     7
 10
90.129836
 20
77.297222
 30
0.0
  0
VERTEX
  8
CSLAYER1
  6
CONTINUOUS
 62
     7
 10
90.182203
 20
77.436939
 30
0.0
  0
VERTEX
  8
CSLAYER1
  6
CONTINUOUS
 62
     7
 10
90.225603
 20
77.582464
 30
0.0
  0
VERTEX
  8
CSLAYER1
  6
CONTINUOUS
 62
     7
 10
90.259706
 20
77.732688
 30
0.0
  0
VERTEX
  8
CSLAYER1
  6
CONTINUOUS
 62
     7
 10
90.284253
 20
77.886469
 30
0.0
  0
VERTEX
  8
CSLAYER1
  6
CONTINUOUS
 62
     7
 10
90.299056
 20
78.042635
 30
0.0
  0
VERTEX
  8
CSLAYER1
  6
CONTINUOUS
 62
     7
 10
90.304003
 20
78.200000
 30
0.0
  0
VERTEX
  8
CSLAYER1
  6
CONTINUOUS
 62
     7
 10
90.299056
 20
78.357365
 30
0.0
  0
VERTEX
  8
CSLAYER1
  6
CONTINUOUS
 62
     7
 10
90.284253
 20
78.513531
 30
0.0
  0
VERTEX
  8
CSLAYER1
  6
CONTINUOUS
 62
     7
 10
90.259706
 20
78.667312
 30
0.0
  0
VERTEX
  8
CSLAYER1
  6
CONTINUOUS
 62
     7
 10
90.225603
 20
78.817536
 30
0.0
  0
VERTEX
  8
CSLAYER1
  6
CONTINUOUS
 62
     7
 10
90.182203
 20
78.963061
 30
0.0
  0
VERTEX
  8
CSLAYER1
  6
CONTINUOUS
 62
     7
 10
90.129836
 20
79.102778
 30
0.0
  0
VERTEX
  8
CSLAYER1
  6
CONTINUOUS
 62
     7
 10
90.068901
 20
79.235624
 30
0.0
  0
VERTEX
  8
CSLAYER1
  6
CONTINUOUS
 62
     7
 10
89.999861
 20
79.360589
 30
0.0
  0
VERTEX
  8
CSLAYER1
  6
CONTINUOUS
 62
     7
 10
89.923242
 20
79.476721
 30
0.0
  0
VERTEX
  8
CSLAYER1
  6
CONTINUOUS
 62
     7
 10
89.839627
 20
79.583136
 30
0.0
  0
VERTEX
  8
CSLAYER1
  6
CONTINUOUS
 62
     7
 10
89.749652
 20
79.679025
 30
0.0
  0
VERTEX
  8
CSLAYER1
  6
CONTINUOUS
 62
     7
 10
89.654003
 20
79.763657
 30
0.0
  0
VERTEX
  8
CSLAYER1
  6
CONTINUOUS
 62
     7
 10
89.553407
 20
79.836389
 30
0.0
  0
VERTEX
  8
CSLAYER1
  6
CONTINUOUS
 62
     7
 10
89.448629
 20
79.896667
 30
0.0
  0
VERTEX
  8
CSLAYER1
  6
CONTINUOUS
 62
     7
 10
89.340468
 20
79.944033
 30
0.0
  0
VERTEX
  8
CSLAYER1
  6
CONTINUOUS
 62
     7
 10
89.229746
 20
79.978125
 30
0.0
  0
VERTEX
  8
CSLAYER1
  6
CONTINUOUS
 62
     7
 10
89.117305
 20
79.998685
 30
0.0
  0
VERTEX
  8
CSLAYER1
  6
CONTINUOUS
 62
     7
 10
89.004003
 20
80.005556
 30
0.0
  0
VERTEX
  8
CSLAYER1
  6
CONTINUOUS
 62
     7
 10
88.890700
 20
79.998685
 30
0.0
  0
VERTEX
  8
CSLAYER1
  6
CONTINUOUS
 62
     7
 10
88.778260
 20
79.978125
 30
0.0
  0
VERTEX
  8
CSLAYER1
  6
CONTINUOUS
 62
     7
 10
88.667538
 20
79.944033
 30
0.0
  0
VERTEX
  8
CSLAYER1
  6
CONTINUOUS
 62
     7
 10
88.559377
 20
79.896667
 30
0.0
  0
VERTEX
  8
CSLAYER1
  6
CONTINUOUS
 62
     7
 10
88.454599
 20
79.836389
 30
0.0
  0
VERTEX
  8
CSLAYER1
  6
CONTINUOUS
 62
     7
 10
88.354003
 20
79.763657
 30
0.0
  0
VERTEX
  8
CSLAYER1
  6
CONTINUOUS
 62
     7
 10
88.258354
 20
79.679025
 30
0.0
  0
VERTEX
  8
CSLAYER1
  6
CONTINUOUS
 62
     7
 10
88.168379
 20
79.583136
 30
0.0
  0
VERTEX
  8
CSLAYER1
  6
CONTINUOUS
 62
     7
 10
88.084764
 20
79.476721
 30
0.0
  0
VERTEX
  8
CSLAYER1
  6
CONTINUOUS
 62
     7
 10
88.008145
 20
79.360589
 30
0.0
  0
VERTEX
  8
CSLAYER1
  6
CONTINUOUS
 62
     7
 10
87.939105
 20
79.235624
 30
0.0
  0
VERTEX
  8
CSLAYER1
  6
CONTINUOUS
 62
     7
 10
87.878170
 20
79.102778
 30
0.0
  0
VERTEX
  8
CSLAYER1
  6
CONTINUOUS
 62
     7
 10
87.825803
 20
78.963061
 30
0.0
  0
VERTEX
  8
CSLAYER1
  6
CONTINUOUS
 62
     7
 10
87.782403
 20
78.817536
 30
0.0
  0
VERTEX
  8
CSLAYER1
  6
CONTINUOUS
 62
     7
 10
87.748299
 20
78.667312
 30
0.0
  0
VERTEX
  8
CSLAYER1
  6
CONTINUOUS
 62
     7
 10
87.723753
 20
78.513531
 30
0.0
  0
VERTEX
  8
CSLAYER1
  6
CONTINUOUS
 62
     7
 10
87.708950
 20
78.357365
 30
0.0
  0
VERTEX
  8
CSLAYER1
  6
CONTINUOUS
 62
     7
 10
87.704003
 20
78.200000
 30
0.0
  0
VERTEX
  8
CSLAYER1
  6
CONTINUOUS
 62
     7
 10
87.708950
 20
78.042635
 30
0.0
  0
VERTEX
  8
CSLAYER1
  6
CONTINUOUS
 62
     7
 10
87.723753
 20
77.886469
 30
0.0
  0
VERTEX
  8
CSLAYER1
  6
CONTINUOUS
 62
     7
 10
87.748299
 20
77.732688
 30
0.0
  0
VERTEX
  8
CSLAYER1
  6
CONTINUOUS
 62
     7
 10
87.782403
 20
77.582464
 30
0.0
  0
VERTEX
  8
CSLAYER1
  6
CONTINUOUS
 62
     7
 10
87.825803
 20
77.436939
 30
0.0
  0
VERTEX
  8
CSLAYER1
  6
CONTINUOUS
 62
     7
 10
87.878170
 20
77.297222
 30
0.0
  0
VERTEX
  8
CSLAYER1
  6
CONTINUOUS
 62
     7
 10
87.939105
 20
77.164376
 30
0.0
  0
VERTEX
  8
CSLAYER1
  6
CONTINUOUS
 62
     7
 10
88.008145
 20
77.039411
 30
0.0
  0
VERTEX
  8
CSLAYER1
  6
CONTINUOUS
 62
     7
 10
88.084764
 20
76.923279
 30
0.0
  0
VERTEX
  8
CSLAYER1
  6
CONTINUOUS
 62
     7
 10
88.168379
 20
76.816864
 30
0.0
  0
VERTEX
  8
CSLAYER1
  6
CONTINUOUS
 62
     7
 10
88.258354
 20
76.720975
 30
0.0
  0
VERTEX
  8
CSLAYER1
  6
CONTINUOUS
 62
     7
 10
88.354003
 20
76.636343
 30
0.0
  0
VERTEX
  8
CSLAYER1
  6
CONTINUOUS
 62
     7
 10
88.454599
 20
76.563611
 30
0.0
  0
VERTEX
  8
CSLAYER1
  6
CONTINUOUS
 62
     7
 10
88.559377
 20
76.503333
 30
0.0
  0
VERTEX
  8
CSLAYER1
  6
CONTINUOUS
 62
     7
 10
88.667538
 20
76.455967
 30
0.0
  0
VERTEX
  8
CSLAYER1
  6
CONTINUOUS
 62
     7
 10
88.778260
 20
76.421875
 30
0.0
  0
VERTEX
  8
CSLAYER1
  6
CONTINUOUS
 62
     7
 10
88.890700
 20
76.401315
 30
0.0
  0
VERTEX
  8
CSLAYER1
  6
CONTINUOUS
 62
     7
 10
89.004003
 20
76.394444
 30
0.0
  0
SEQEND
  0
LINE
  8
CSLAYER1
  6
PHANTOM
 62
     3
 10
131.500000
 20
160.500000
 11
131.500000
 21
216.500000
  0
LINE
  8
CSLAYER1
  6
PHANTOM
 62
     3
 10
133.084000
 20
160.500000
 11
133.084000
 21
216.500000
  0
LINE
  8
CSLAYER1
  6
PHANTOM
 62
     3
 10
133.084000
 20
216.500000
 11
131.500000
 21
216.500000
  0
LINE
  8
CSLAYER1
  6
CONTINUOUS
 62
     6
 10
132.292000
 20
216.500000
 11
143.500000
 21
216.500000
  0
LINE
  8
CSLAYER1
  6
CONTINUOUS
 62
     6
 10
132.292000
 20
160.500000
 11
132.292000
 21
216.500000
  0
LINE
  8
CSLAYER1
  6
CONTINUOUS
 62
     6
 10
132.292000
 20
215.000000
 11
143.500000
 21
215.000000
  0
LINE
  8
CSLAYER1
  6
CONTINUOUS
 62
     6
 10
132.292000
 20
205.600000
 11
143.500000
 21
205.600000
  0
LINE
  8
CSLAYER1
  6
CONTINUOUS
 62
     6
 10
132.292000
 20
204.100000
 11
143.500000
 21
204.100000
  0
LINE
  8
CSLAYER1
  6
CONTINUOUS
 62
     3
 10
138.628000
 20
214.916000
 11
138.628000
 21
205.600000
  0
LINE
  8
CSLAYER1
  6
CONTINUOUS
 62
     3
 10
137.836000
 20
214.916000
 11
137.836000
 21
205.600000
  0
LINE
  8
CSLAYER1
  6
CONTINUOUS
 62
     3
 10
136.991200
 20
206.845697
 11
136.991200
 21
213.604303
  0
ARC
  8
CSLAYER1
  6
CONTINUOUS
 62
     6
 10
143.025696
 20
210.225000
 40
8.448294
 50
163.742994
 51
196.257016
  0
LINE
  8
CSLAYER1
  6
CONTINUOUS
 62
     6
 10
136.728738
 20
213.521008
 11
135.968607
 21
213.454508
  0
ARC
  8
CSLAYER1
  6
CONTINUOUS
 62
     6
 10
136.073798
 20
212.252195
 40
1.206899
 50
95.000111
 51
163.742611
  0
ARC
  8
CSLAYER1
  6
CONTINUOUS
 62
     3
 10
136.749806
 20
213.280553
 40
0.241380
 50
0.000000
 51
95.000152
  0
LINE
  8
CSLAYER1
  6
CONTINUOUS
 62
     3
 10
137.111861
 20
213.725000
 11
137.715310
 21
213.725000
  0
ARC
  8
CSLAYER1
  6
CONTINUOUS
 62
     3
 10
137.111861
 20
213.604303
 40
0.120690
 50
90.000003
 51
180.000005
  0
ARC
  8
CSLAYER1
  6
CONTINUOUS
 62
     3
 10
137.715310
 20
213.604303
 40
0.120690
 50
0.000000
 51
90.000003
  0
LINE
  8
CSLAYER1
  6
CONTINUOUS
 62
     6
 10
136.728738
 20
206.928992
 11
135.968607
 21
206.995492
  0
ARC
  8
CSLAYER1
  6
CONTINUOUS
 62
     6
 10
136.073798
 20
208.197805
 40
1.206899
 50
196.257399
 51
264.999892
  0
ARC
  8
CSLAYER1
  6
CONTINUOUS
 62
     3
 10
136.749806
 20
207.169447
 40
0.241380
 50
264.999865
 51
359.942691
  0
ARC
  8
CSLAYER1
  6
CONTINUOUS
 62
     3
 10
137.111861
 20
206.845697
 40
0.120690
 50
180.000005
 51
270.000001
  0
LINE
  8
CSLAYER1
  6
CONTINUOUS
 62
     3
 10
137.111861
 20
206.725000
 11
137.715310
 21
206.725000
  0
ARC
  8
CSLAYER1
  6
CONTINUOUS
 62
     3
 10
137.715310
 20
206.845697
 40
0.120690
 50
270.000001
 51
359.942691
  0
LINE
  8
CSLAYER1
  6
CONTINUOUS
 62
     3
 10
136.991200
 20
209.505770
 11
137.836007
 21
210.041468
  0
LINE
  8
CSLAYER1
  6
CONTINUOUS
 62
     3
 10
136.991200
 20
210.109220
 11
137.836007
 21
210.644917
  0
LINE
  8
CSLAYER1
  6
CONTINUOUS
 62
     6
 10
132.292000
 20
194.700000
 11
143.500000
 21
194.700000
  0
LINE
  8
CSLAYER1
  6
CONTINUOUS
 62
     6
 10
132.292000
 20
193.200000
 11
143.500000
 21
193.200000
  0
LINE
  8
CSLAYER1
  6
CONTINUOUS
 62
     3
 10
138.628000
 20
204.016000
 11
138.628000
 21
194.700000
  0
LINE
  8
CSLAYER1
  6
CONTINUOUS
 62
     3
 10
137.836000
 20
204.016000
 11
137.836000
 21
194.700000
  0
LINE
  8
CSLAYER1
  6
CONTINUOUS
 62
     3
 10
136.991200
 20
195.945697
 11
136.991200
 21
202.704303
  0
ARC
  8
CSLAYER1
  6
CONTINUOUS
 62
     6
 10
143.025696
 20
199.325000
 40
8.448294
 50
163.742994
 51
196.257016
  0
LINE
  8
CSLAYER1
  6
CONTINUOUS
 62
     6
 10
136.728738
 20
202.621008
 11
135.968607
 21
202.554508
  0
ARC
  8
CSLAYER1
  6
CONTINUOUS
 62
     6
 10
136.073798
 20
201.352195
 40
1.206899
 50
95.000111
 51
163.742611
  0
ARC
  8
CSLAYER1
  6
CONTINUOUS
 62
     3
 10
136.749806
 20
202.380553
 40
0.241380
 50
0.000000
 51
95.000152
  0
LINE
  8
CSLAYER1
  6
CONTINUOUS
 62
     3
 10
137.111861
 20
202.825000
 11
137.715310
 21
202.825000
  0
ARC
  8
CSLAYER1
  6
CONTINUOUS
 62
     3
 10
137.111861
 20
202.704303
 40
0.120690
 50
90.000003
 51
180.000005
  0
ARC
  8
CSLAYER1
  6
CONTINUOUS
 62
     3
 10
137.715310
 20
202.704303
 40
0.120690
 50
0.000000
 51
90.000003
  0
LINE
  8
CSLAYER1
  6
CONTINUOUS
 62
     6
 10
136.728738
 20
196.028992
 11
135.968607
 21
196.095492
  0
ARC
  8
CSLAYER1
  6
CONTINUOUS
 62
     6
 10
136.073798
 20
197.297805
 40
1.206899
 50
196.257399
 51
264.999892
  0
ARC
  8
CSLAYER1
  6
CONTINUOUS
 62
     3
 10
136.749806
 20
196.269447
 40
0.241380
 50
264.999865
 51
359.942691
  0
ARC
  8
CSLAYER1
  6
CONTINUOUS
 62
     3
 10
137.111861
 20
195.945697
 40
0.120690
 50
180.000005
 51
270.000001
  0
LINE
  8
CSLAYER1
  6
CONTINUOUS
 62
     3
 10
137.111861
 20
195.825000
 11
137.715310
 21
195.825000
  0
ARC
  8
CSLAYER1
  6
CONTINUOUS
 62
     3
 10
137.715310
 20
195.945697
 40
0.120690
 50
270.000001
 51
359.942691
  0
LINE
  8
CSLAYER1
  6
CONTINUOUS
 62
     3
 10
136.991200
 20
198.605770
 11
137.836007
 21
199.141468
  0
LINE
  8
CSLAYER1
  6
CONTINUOUS
 62
     3
 10
136.991200
 20
199.209220
 11
137.836007
 21
199.744917
  0
LINE
  8
CSLAYER1
  6
CONTINUOUS
 62
     6
 10
132.292000
 20
183.800000
 11
143.500000
 21
183.800000
  0
LINE
  8
CSLAYER1
  6
CONTINUOUS
 62
     6
 10
132.292000
 20
182.300000
 11
143.500000
 21
182.300000
  0
LINE
  8
CSLAYER1
  6
CONTINUOUS
 62
     3
 10
138.628000
 20
193.116000
 11
138.628000
 21
183.800000
  0
LINE
  8
CSLAYER1
  6
CONTINUOUS
 62
     3
 10
137.836000
 20
193.116000
 11
137.836000
 21
183.800000
  0
LINE
  8
CSLAYER1
  6
CONTINUOUS
 62
     3
 10
136.991200
 20
185.045697
 11
136.991200
 21
191.804303
  0
ARC
  8
CSLAYER1
  6
CONTINUOUS
 62
     6
 10
143.025696
 20
188.425000
 40
8.448294
 50
163.742994
 51
196.257016
  0
LINE
  8
CSLAYER1
  6
CONTINUOUS
 62
     6
 10
136.728738
 20
191.721008
 11
135.968607
 21
191.654508
  0
ARC
  8
CSLAYER1
  6
CONTINUOUS
 62
     6
 10
136.073798
 20
190.452195
 40
1.206899
 50
95.000111
 51
163.742611
  0
ARC
  8
CSLAYER1
  6
CONTINUOUS
 62
     3
 10
136.749806
 20
191.480553
 40
0.241380
 50
0.000000
 51
95.000152
  0
LINE
  8
CSLAYER1
  6
CONTINUOUS
 62
     3
 10
137.111861
 20
191.925000
 11
137.715310
 21
191.925000
  0
ARC
  8
CSLAYER1
  6
CONTINUOUS
 62
     3
 10
137.111861
 20
191.804303
 40
0.120690
 50
90.000003
 51
180.000005
  0
ARC
  8
CSLAYER1
  6
CONTINUOUS
 62
     3
 10
137.715310
 20
191.804303
 40
0.120690
 50
0.000000
 51
90.000003
  0
LINE
  8
CSLAYER1
  6
CONTINUOUS
 62
     6
 10
136.728738
 20
185.128992
 11
135.968607
 21
185.195492
  0
ARC
  8
CSLAYER1
  6
CONTINUOUS
 62
     6
 10
136.073798
 20
186.397805
 40
1.206899
 50
196.257399
 51
264.999892
  0
ARC
  8
CSLAYER1
  6
CONTINUOUS
 62
     3
 10
136.749806
 20
185.369447
 40
0.241380
 50
264.999865
 51
359.942691
  0
ARC
  8
CSLAYER1
  6
CONTINUOUS
 62
     3
 10
137.111861
 20
185.045697
 40
0.120690
 50
180.000005
 51
270.000001
  0
LINE
  8
CSLAYER1
  6
CONTINUOUS
 62
     3
 10
137.111861
 20
184.925000
 11
137.715310
 21
184.925000
  0
ARC
  8
CSLAYER1
  6
CONTINUOUS
 62
     3
 10
137.715310
 20
185.045697
 40
0.120690
 50
270.000001
 51
359.942691
  0
LINE
  8
CSLAYER1
  6
CONTINUOUS
 62
     3
 10
136.991200
 20
187.705770
 11
137.836007
 21
188.241468
  0
LINE
  8
CSLAYER1
  6
CONTINUOUS
 62
     3
 10
136.991200
 20
188.309220
 11
137.836007
 21
188.844917
  0
LINE
  8
CSLAYER1
  6
CONTINUOUS
 62
     6
 10
132.292000
 20
172.900000
 11
143.500000
 21
172.900000
  0
LINE
  8
CSLAYER1
  6
CONTINUOUS
 62
     6
 10
132.292000
 20
171.400000
 11
143.500000
 21
171.400000
  0
LINE
  8
CSLAYER1
  6
CONTINUOUS
 62
     3
 10
138.628000
 20
182.216000
 11
138.628000
 21
172.900000
  0
LINE
  8
CSLAYER1
  6
CONTINUOUS
 62
     3
 10
137.836000
 20
182.216000
 11
137.836000
 21
172.900000
  0
LINE
  8
CSLAYER1
  6
CONTINUOUS
 62
     3
 10
136.991200
 20
174.145697
 11
136.991200
 21
180.904303
  0
ARC
  8
CSLAYER1
  6
CONTINUOUS
 62
     6
 10
143.025696
 20
177.525000
 40
8.448294
 50
163.742994
 51
196.257016
  0
LINE
  8
CSLAYER1
  6
CONTINUOUS
 62
     6
 10
136.728738
 20
180.821008
 11
135.968607
 21
180.754508
  0
ARC
  8
CSLAYER1
  6
CONTINUOUS
 62
     6
 10
136.073798
 20
179.552195
 40
1.206899
 50
95.000111
 51
163.742611
  0
ARC
  8
CSLAYER1
  6
CONTINUOUS
 62
     3
 10
136.749806
 20
180.580553
 40
0.241380
 50
0.000000
 51
95.000152
  0
LINE
  8
CSLAYER1
  6
CONTINUOUS
 62
     3
 10
137.111861
 20
181.025000
 11
137.715310
 21
181.025000
  0
ARC
  8
CSLAYER1
  6
CONTINUOUS
 62
     3
 10
137.111861
 20
180.904303
 40
0.120690
 50
90.000003
 51
180.000005
  0
ARC
  8
CSLAYER1
  6
CONTINUOUS
 62
     3
 10
137.715310
 20
180.904303
 40
0.120690
 50
0.000000
 51
90.000003
  0
LINE
  8
CSLAYER1
  6
CONTINUOUS
 62
     6
 10
136.728738
 20
174.228992
 11
135.968607
 21
174.295492
  0
ARC
  8
CSLAYER1
  6
CONTINUOUS
 62
     6
 10
136.073798
 20
175.497805
 40
1.206899
 50
196.257399
 51
264.999892
  0
ARC
  8
CSLAYER1
  6
CONTINUOUS
 62
     3
 10
136.749806
 20
174.469447
 40
0.241380
 50
264.999865
 51
359.942691
  0
ARC
  8
CSLAYER1
  6
CONTINUOUS
 62
     3
 10
137.111861
 20
174.145697
 40
0.120690
 50
180.000005
 51
270.000001
  0
LINE
  8
CSLAYER1
  6
CONTINUOUS
 62
     3
 10
137.111861
 20
174.025000
 11
137.715310
 21
174.025000
  0
ARC
  8
CSLAYER1
  6
CONTINUOUS
 62
     3
 10
137.715310
 20
174.145697
 40
0.120690
 50
270.000001
 51
359.942691
  0
LINE
  8
CSLAYER1
  6
CONTINUOUS
 62
     3
 10
136.991200
 20
176.805770
 11
137.836007
 21
177.341468
  0
LINE
  8
CSLAYER1
  6
CONTINUOUS
 62
     3
 10
136.991200
 20
177.409220
 11
137.836007
 21
177.944917
  0
LINE
  8
CSLAYER1
  6
CONTINUOUS
 62
     6
 10
132.292000
 20
162.000000
 11
143.500000
 21
162.000000
  0
LINE
  8
CSLAYER1
  6
CONTINUOUS
 62
     6
 10
132.292000
 20
160.500000
 11
143.500000
 21
160.500000
  0
LINE
  8
CSLAYER1
  6
CONTINUOUS
 62
     3
 10
138.628000
 20
171.316000
 11
138.628000
 21
162.000000
  0
LINE
  8
CSLAYER1
  6
CONTINUOUS
 62
     3
 10
137.836000
 20
171.316000
 11
137.836000
 21
162.000000
  0
LINE
  8
CSLAYER1
  6
CONTINUOUS
 62
     3
 10
136.991200
 20
163.245697
 11
136.991200
 21
170.004303
  0
ARC
  8
CSLAYER1
  6
CONTINUOUS
 62
     6
 10
143.025696
 20
166.625000
 40
8.448294
 50
163.742994
 51
196.257016
  0
LINE
  8
CSLAYER1
  6
CONTINUOUS
 62
     6
 10
136.728738
 20
169.921008
 11
135.968607
 21
169.854508
  0
ARC
  8
CSLAYER1
  6
CONTINUOUS
 62
     6
 10
136.073798
 20
168.652195
 40
1.206899
 50
95.000111
 51
163.742611
  0
ARC
  8
CSLAYER1
  6
CONTINUOUS
 62
     3
 10
136.749806
 20
169.680553
 40
0.241380
 50
0.000000
 51
95.000152
  0
LINE
  8
CSLAYER1
  6
CONTINUOUS
 62
     3
 10
137.111861
 20
170.125000
 11
137.715310
 21
170.125000
  0
ARC
  8
CSLAYER1
  6
CONTINUOUS
 62
     3
 10
137.111861
 20
170.004303
 40
0.120690
 50
90.000003
 51
180.000005
  0
ARC
  8
CSLAYER1
  6
CONTINUOUS
 62
     3
 10
137.715310
 20
170.004303
 40
0.120690
 50
0.000000
 51
90.000003
  0
LINE
  8
CSLAYER1
  6
CONTINUOUS
 62
     6
 10
136.728738
 20
163.328992
 11
135.968607
 21
163.395492
  0
ARC
  8
CSLAYER1
  6
CONTINUOUS
 62
     6
 10
136.073798
 20
164.597805
 40
1.206899
 50
196.257399
 51
264.999892
  0
ARC
  8
CSLAYER1
  6
CONTINUOUS
 62
     3
 10
136.749806
 20
163.569447
 40
0.241380
 50
264.999865
 51
359.942691
  0
ARC
  8
CSLAYER1
  6
CONTINUOUS
 62
     3
 10
137.111861
 20
163.245697
 40
0.120690
 50
180.000005
 51
270.000001
  0
LINE
  8
CSLAYER1
  6
CONTINUOUS
 62
     3
 10
137.111861
 20
163.125000
 11
137.715310
 21
163.125000
  0
ARC
  8
CSLAYER1
  6
CONTINUOUS
 62
     3
 10
137.715310
 20
163.245697
 40
0.120690
 50
270.000001
 51
359.942691
  0
LINE
  8
CSLAYER1
  6
CONTINUOUS
 62
     3
 10
136.991200
 20
165.905770
 11
137.836007
 21
166.441468
  0
LINE
  8
CSLAYER1
  6
CONTINUOUS
 62
     3
 10
136.991200
 20
166.509220
 11
137.836007
 21
167.044917
  0
LINE
  8
CSLAYER1
  6
PHANTOM
 62
     3
 10
133.084000
 20
160.500000
 11
131.500000
 21
160.500000
  0
LINE
  8
CSLAYER1
  6
CONTINUOUS
 62
     6
 10
131.500000
 20
75.500000
 11
131.500000
 21
129.500000
  0
LINE
  8
CSLAYER1
  6
CONTINUOUS
 62
     6
 10
131.500000
 20
129.500000
 11
143.500000
 21
129.500000
  0
LINE
  8
CSLAYER1
  6
CONTINUOUS
 62
     6
 10
131.500000
 20
75.500000
 11
143.500000
 21
75.500000
  0
LINE
  8
CSLAYER1
  6
CONTINUOUS
 62
     3
 10
131.500000
 20
124.100000
 11
143.500000
 21
124.100000
  0
LINE
  8
CSLAYER1
  6
CONTINUOUS
 62
     3
 10
131.500000
 20
118.700000
 11
143.500000
 21
118.700000
  0
LINE
  8
CSLAYER1
  6
CONTINUOUS
 62
     3
 10
131.500000
 20
113.300000
 11
143.500000
 21
113.300000
  0
LINE
  8
CSLAYER1
  6
CONTINUOUS
 62
     3
 10
131.500000
 20
97.100000
 11
143.500000
 21
97.100000
  0
LINE
  8
CSLAYER1
  6
CONTINUOUS
 62
     3
 10
131.500000
 20
102.500000
 11
143.500000
 21
102.500000
  0
LINE
  8
CSLAYER1
  6
CONTINUOUS
 62
     3
 10
131.500000
 20
107.900000
 11
143.500000
 21
107.900000
  0
LINE
  8
CSLAYER1
  6
CONTINUOUS
 62
     3
 10
131.500000
 20
91.700000
 11
143.500000
 21
91.700000
  0
LINE
  8
CSLAYER1
  6
CONTINUOUS
 62
     3
 10
131.500000
 20
86.300000
 11
143.500000
 21
86.300000
  0
LINE
  8
CSLAYER1
  6
CONTINUOUS
 62
     3
 10
131.500000
 20
80.900000
 11
143.500000
 21
80.900000
  0
LINE
  8
CSLAYER1
  6
CONTINUOUS
 62
     3
 10
141.000000
 20
129.500000
 11
141.000000
 21
75.500000
  0
LINE
  8
CSLAYER1
  6
CONTINUOUS
 62
     3
 10
136.669873
 20
75.500000
 11
136.669873
 21
129.500000
  0
ARC
  8
CSLAYER1
  6
CONTINUOUS
 62
     3
 10
135.096048
 20
126.800000
 40
1.805556
 50
109.000802
 51
250.999198
  0
LINE
  8
CSLAYER1
  6
CONTINUOUS
 62
     3
 10
135.061602
 20
127.991634
 11
133.707374
 21
125.646043
  0
POLYLINE
  8
CSLAYER1
  6
CONTINUOUS
 62
     7
 66
     1
 10
0.0
 20
0.0
 30
0.0
  0
VERTEX
  8
CSLAYER1
  6
CONTINUOUS
 62
     7
 10
134.084936
 20
128.605556
 30
0.0
  0
VERTEX
  8
CSLAYER1
  6
CONTINUOUS
 62
     7
 10
133.971634
 20
128.598685
 30
0.0
  0
VERTEX
  8
CSLAYER1
  6
CONTINUOUS
 62
     7
 10
133.859194
 20
128.578125
 30
0.0
  0
VERTEX
  8
CSLAYER1
  6
CONTINUOUS
 62
     7
 10
133.748472
 20
128.544033
 30
0.0
  0
VERTEX
  8
CSLAYER1
  6
CONTINUOUS
 62
     7
 10
133.640310
 20
128.496667
 30
0.0
  0
VERTEX
  8
CSLAYER1
  6
CONTINUOUS
 62
     7
 10
133.535533
 20
128.436389
 30
0.0
  0
VERTEX
  8
CSLAYER1
  6
CONTINUOUS
 62
     7
 10
133.434936
 20
128.363657
 30
0.0
  0
VERTEX
  8
CSLAYER1
  6
CONTINUOUS
 62
     7
 10
133.339287
 20
128.279025
 30
0.0
  0
VERTEX
  8
CSLAYER1
  6
CONTINUOUS
 62
     7
 10
133.249313
 20
128.183136
 30
0.0
  0
VERTEX
  8
CSLAYER1
  6
CONTINUOUS
 62
     7
 10
133.165698
 20
128.076721
 30
0.0
  0
VERTEX
  8
CSLAYER1
  6
CONTINUOUS
 62
     7
 10
133.089079
 20
127.960589
 30
0.0
  0
VERTEX
  8
CSLAYER1
  6
CONTINUOUS
 62
     7
 10
133.020039
 20
127.835624
 30
0.0
  0
VERTEX
  8
CSLAYER1
  6
CONTINUOUS
 62
     7
 10
132.959103
 20
127.702778
 30
0.0
  0
VERTEX
  8
CSLAYER1
  6
CONTINUOUS
 62
     7
 10
132.906736
 20
127.563061
 30
0.0
  0
VERTEX
  8
CSLAYER1
  6
CONTINUOUS
 62
     7
 10
132.863336
 20
127.417536
 30
0.0
  0
VERTEX
  8
CSLAYER1
  6
CONTINUOUS
 62
     7
 10
132.829233
 20
127.267312
 30
0.0
  0
VERTEX
  8
CSLAYER1
  6
CONTINUOUS
 62
     7
 10
132.804686
 20
127.113531
 30
0.0
  0
VERTEX
  8
CSLAYER1
  6
CONTINUOUS
 62
     7
 10
132.789883
 20
126.957365
 30
0.0
  0
VERTEX
  8
CSLAYER1
  6
CONTINUOUS
 62
     7
 10
132.784936
 20
126.800000
 30
0.0
  0
VERTEX
  8
CSLAYER1
  6
CONTINUOUS
 62
     7
 10
132.789883
 20
126.642635
 30
0.0
  0
VERTEX
  8
CSLAYER1
  6
CONTINUOUS
 62
     7
 10
132.804686
 20
126.486469
 30
0.0
  0
VERTEX
  8
CSLAYER1
  6
CONTINUOUS
 62
     7
 10
132.829233
 20
126.332688
 30
0.0
  0
VERTEX
  8
CSLAYER1
  6
CONTINUOUS
 62
     7
 10
132.863336
 20
126.182464
 30
0.0
  0
VERTEX
  8
CSLAYER1
  6
CONTINUOUS
 62
     7
 10
132.906736
 20
126.036939
 30
0.0
  0
VERTEX
  8
CSLAYER1
  6
CONTINUOUS
 62
     7
 10
132.959103
 20
125.897222
 30
0.0
  0
VERTEX
  8
CSLAYER1
  6
CONTINUOUS
 62
     7
 10
133.020039
 20
125.764376
 30
0.0
  0
VERTEX
  8
CSLAYER1
  6
CONTINUOUS
 62
     7
 10
133.089079
 20
125.639411
 30
0.0
  0
VERTEX
  8
CSLAYER1
  6
CONTINUOUS
 62
     7
 10
133.165698
 20
125.523279
 30
0.0
  0
VERTEX
  8
CSLAYER1
  6
CONTINUOUS
 62
     7
 10
133.249313
 20
125.416864
 30
0.0
  0
VERTEX
  8
CSLAYER1
  6
CONTINUOUS
 62
     7
 10
133.339287
 20
125.320975
 30
0.0
  0
VERTEX
  8
CSLAYER1
  6
CONTINUOUS
 62
     7
 10
133.434936
 20
125.236343
 30
0.0
  0
VERTEX
  8
CSLAYER1
  6
CONTINUOUS
 62
     7
 10
133.535533
 20
125.163611
 30
0.0
  0
VERTEX
  8
CSLAYER1
  6
CONTINUOUS
 62
     7
 10
133.640310
 20
125.103333
 30
0.0
  0
VERTEX
  8
CSLAYER1
  6
CONTINUOUS
 62
     7
 10
133.748472
 20
125.055967
 30
0.0
  0
VERTEX
  8
CSLAYER1
  6
CONTINUOUS
 62
     7
 10
133.859194
 20
125.021875
 30
0.0
  0
VERTEX
  8
CSLAYER1
  6
CONTINUOUS
 62
     7
 10
133.971634
 20
125.001315
 30
0.0
  0
VERTEX
  8
CSLAYER1
  6
CONTINUOUS
 62
     7
 10
134.084936
 20
124.994444
 30
0.0
  0
VERTEX
  8
CSLAYER1
  6
CONTINUOUS
 62
     7
 10
134.198239
 20
125.001315
 30
0.0
  0
VERTEX
  8
CSLAYER1
  6
CONTINUOUS
 62
     7
 10
134.310679
 20
125.021875
 30
0.0
  0
VERTEX
  8
CSLAYER1
  6
CONTINUOUS
 62
     7
 10
134.421401
 20
125.055967
 30
0.0
  0
VERTEX
  8
CSLAYER1
  6
CONTINUOUS
 62
     7
 10
134.529563
 20
125.103333
 30
0.0
  0
VERTEX
  8
CSLAYER1
  6
CONTINUOUS
 62
     7
 10
134.634340
 20
125.163611
 30
0.0
  0
VERTEX
  8
CSLAYER1
  6
CONTINUOUS
 62
     7
 10
134.734936
 20
125.236343
 30
0.0
  0
VERTEX
  8
CSLAYER1
  6
CONTINUOUS
 62
     7
 10
134.830586
 20
125.320975
 30
0.0
  0
VERTEX
  8
CSLAYER1
  6
CONTINUOUS
 62
     7
 10
134.920560
 20
125.416864
 30
0.0
  0
VERTEX
  8
CSLAYER1
  6
CONTINUOUS
 62
     7
 10
135.004175
 20
125.523279
 30
0.0
  0
VERTEX
  8
CSLAYER1
  6
CONTINUOUS
 62
     7
 10
135.080794
 20
125.639411
 30
0.0
  0
VERTEX
  8
CSLAYER1
  6
CONTINUOUS
 62
     7
 10
135.149834
 20
125.764376
 30
0.0
  0
VERTEX
  8
CSLAYER1
  6
CONTINUOUS
 62
     7
 10
135.210770
 20
125.897222
 30
0.0
  0
VERTEX
  8
CSLAYER1
  6
CONTINUOUS
 62
     7
 10
135.263137
 20
126.036939
 30
0.0
  0
VERTEX
  8
CSLAYER1
  6
CONTINUOUS
 62
     7
 10
135.306537
 20
126.182464
 30
0.0
  0
VERTEX
  8
CSLAYER1
  6
CONTINUOUS
 62
     7
 10
135.340640
 20
126.332688
 30
0.0
  0
VERTEX
  8
CSLAYER1
  6
CONTINUOUS
 62
     7
 10
135.365187
 20
126.486469
 30
0.0
  0
VERTEX
  8
CSLAYER1
  6
CONTINUOUS
 62
     7
 10
135.379990
 20
126.642635
 30
0.0
  0
VERTEX
  8
CSLAYER1
  6
CONTINUOUS
 62
     7
 10
135.384936
 20
126.800000
 30
0.0
  0
VERTEX
  8
CSLAYER1
  6
CONTINUOUS
 62
     7
 10
135.379990
 20
126.957365
 30
0.0
  0
VERTEX
  8
CSLAYER1
  6
CONTINUOUS
 62
     7
 10
135.365187
 20
127.113531
 30
0.0
  0
VERTEX
  8
CSLAYER1
  6
CONTINUOUS
 62
     7
 10
135.340640
 20
127.267312
 30
0.0
  0
VERTEX
  8
CSLAYER1
  6
CONTINUOUS
 62
     7
 10
135.306537
 20
127.417536
 30
0.0
  0
VERTEX
  8
CSLAYER1
  6
CONTINUOUS
 62
     7
 10
135.263137
 20
127.563061
 30
0.0
  0
VERTEX
  8
CSLAYER1
  6
CONTINUOUS
 62
     7
 10
135.210770
 20
127.702778
 30
0.0
  0
VERTEX
  8
CSLAYER1
  6
CONTINUOUS
 62
     7
 10
135.149834
 20
127.835624
 30
0.0
  0
VERTEX
  8
CSLAYER1
  6
CONTINUOUS
 62
     7
 10
135.080794
 20
127.960589
 30
0.0
  0
VERTEX
  8
CSLAYER1
  6
CONTINUOUS
 62
     7
 10
135.004175
 20
128.076721
 30
0.0
  0
VERTEX
  8
CSLAYER1
  6
CONTINUOUS
 62
     7
 10
134.920560
 20
128.183136
 30
0.0
  0
VERTEX
  8
CSLAYER1
  6
CONTINUOUS
 62
     7
 10
134.830586
 20
128.279025
 30
0.0
  0
VERTEX
  8
CSLAYER1
  6
CONTINUOUS
 62
     7
 10
134.734936
 20
128.363657
 30
0.0
  0
VERTEX
  8
CSLAYER1
  6
CONTINUOUS
 62
     7
 10
134.634340
 20
128.436389
 30
0.0
  0
VERTEX
  8
CSLAYER1
  6
CONTINUOUS
 62
     7
 10
134.529563
 20
128.496667
 30
0.0
  0
VERTEX
  8
CSLAYER1
  6
CONTINUOUS
 62
     7
 10
134.421401
 20
128.544033
 30
0.0
  0
VERTEX
  8
CSLAYER1
  6
CONTINUOUS
 62
     7
 10
134.310679
 20
128.578125
 30
0.0
  0
VERTEX
  8
CSLAYER1
  6
CONTINUOUS
 62
     7
 10
134.198239
 20
128.598685
 30
0.0
  0
VERTEX
  8
CSLAYER1
  6
CONTINUOUS
 62
     7
 10
134.084936
 20
128.605556
 30
0.0
  0
SEQEND
  0
ARC
  8
CSLAYER1
  6
CONTINUOUS
 62
     3
 10
135.011111
 20
121.600000
 40
1.805556
 50
109.000802
 51
250.999198
  0
POLYLINE
  8
CSLAYER1
  6
CONTINUOUS
 62
     7
 66
     1
 10
0.0
 20
0.0
 30
0.0
  0
VERTEX
  8
CSLAYER1
  6
CONTINUOUS
 62
     7
 10
134.000000
 20
123.405556
 30
0.0
  0
VERTEX
  8
CSLAYER1
  6
CONTINUOUS
 62
     7
 10
133.886698
 20
123.398685
 30
0.0
  0
VERTEX
  8
CSLAYER1
  6
CONTINUOUS
 62
     7
 10
133.774257
 20
123.378125
 30
0.0
  0
VERTEX
  8
CSLAYER1
  6
CONTINUOUS
 62
     7
 10
133.663535
 20
123.344033
 30
0.0
  0
VERTEX
  8
CSLAYER1
  6
CONTINUOUS
 62
     7
 10
133.555374
 20
123.296667
 30
0.0
  0
VERTEX
  8
CSLAYER1
  6
CONTINUOUS
 62
     7
 10
133.450596
 20
123.236389
 30
0.0
  0
VERTEX
  8
CSLAYER1
  6
CONTINUOUS
 62
     7
 10
133.350000
 20
123.163657
 30
0.0
  0
VERTEX
  8
CSLAYER1
  6
CONTINUOUS
 62
     7
 10
133.254351
 20
123.079025
 30
0.0
  0
VERTEX
  8
CSLAYER1
  6
CONTINUOUS
 62
     7
 10
133.164376
 20
122.983136
 30
0.0
  0
VERTEX
  8
CSLAYER1
  6
CONTINUOUS
 62
     7
 10
133.080761
 20
122.876721
 30
0.0
  0
VERTEX
  8
CSLAYER1
  6
CONTINUOUS
 62
     7
 10
133.004142
 20
122.760589
 30
0.0
  0
VERTEX
  8
CSLAYER1
  6
CONTINUOUS
 62
     7
 10
132.935102
 20
122.635624
 30
0.0
  0
VERTEX
  8
CSLAYER1
  6
CONTINUOUS
 62
     7
 10
132.874167
 20
122.502778
 30
0.0
  0
VERTEX
  8
CSLAYER1
  6
CONTINUOUS
 62
     7
 10
132.821800
 20
122.363061
 30
0.0
  0
VERTEX
  8
CSLAYER1
  6
CONTINUOUS
 62
     7
 10
132.778400
 20
122.217536
 30
0.0
  0
VERTEX
  8
CSLAYER1
  6
CONTINUOUS
 62
     7
 10
132.744296
 20
122.067312
 30
0.0
  0
VERTEX
  8
CSLAYER1
  6
CONTINUOUS
 62
     7
 10
132.719750
 20
121.913531
 30
0.0
  0
VERTEX
  8
CSLAYER1
  6
CONTINUOUS
 62
     7
 10
132.704947
 20
121.757365
 30
0.0
  0
VERTEX
  8
CSLAYER1
  6
CONTINUOUS
 62
     7
 10
132.700000
 20
121.600000
 30
0.0
  0
VERTEX
  8
CSLAYER1
  6
CONTINUOUS
 62
     7
 10
132.704947
 20
121.442635
 30
0.0
  0
VERTEX
  8
CSLAYER1
  6
CONTINUOUS
 62
     7
 10
132.719750
 20
121.286469
 30
0.0
  0
VERTEX
  8
CSLAYER1
  6
CONTINUOUS
 62
     7
 10
132.744296
 20
121.132688
 30
0.0
  0
VERTEX
  8
CSLAYER1
  6
CONTINUOUS
 62
     7
 10
132.778400
 20
120.982464
 30
0.0
  0
VERTEX
  8
CSLAYER1
  6
CONTINUOUS
 62
     7
 10
132.821800
 20
120.836939
 30
0.0
  0
VERTEX
  8
CSLAYER1
  6
CONTINUOUS
 62
     7
 10
132.874167
 20
120.697222
 30
0.0
  0
VERTEX
  8
CSLAYER1
  6
CONTINUOUS
 62
     7
 10
132.935102
 20
120.564376
 30
0.0
  0
VERTEX
  8
CSLAYER1
  6
CONTINUOUS
 62
     7
 10
133.004142
 20
120.439411
 30
0.0
  0
VERTEX
  8
CSLAYER1
  6
CONTINUOUS
 62
     7
 10
133.080761
 20
120.323279
 30
0.0
  0
VERTEX
  8
CSLAYER1
  6
CONTINUOUS
 62
     7
 10
133.164376
 20
120.216864
 30
0.0
  0
VERTEX
  8
CSLAYER1
  6
CONTINUOUS
 62
     7
 10
133.254351
 20
120.120975
 30
0.0
  0
VERTEX
  8
CSLAYER1
  6
CONTINUOUS
 62
     7
 10
133.350000
 20
120.036343
 30
0.0
  0
VERTEX
  8
CSLAYER1
  6
CONTINUOUS
 62
     7
 10
133.450596
 20
119.963611
 30
0.0
  0
VERTEX
  8
CSLAYER1
  6
CONTINUOUS
 62
     7
 10
133.555374
 20
119.903333
 30
0.0
  0
VERTEX
  8
CSLAYER1
  6
CONTINUOUS
 62
     7
 10
133.663535
 20
119.855967
 30
0.0
  0
VERTEX
  8
CSLAYER1
  6
CONTINUOUS
 62
     7
 10
133.774257
 20
119.821875
 30
0.0
  0
VERTEX
  8
CSLAYER1
  6
CONTINUOUS
 62
     7
 10
133.886698
 20
119.801315
 30
0.0
  0
VERTEX
  8
CSLAYER1
  6
CONTINUOUS
 62
     7
 10
134.000000
 20
119.794444
 30
0.0
  0
VERTEX
  8
CSLAYER1
  6
CONTINUOUS
 62
     7
 10
134.113302
 20
119.801315
 30
0.0
  0
VERTEX
  8
CSLAYER1
  6
CONTINUOUS
 62
     7
 10
134.225743
 20
119.821875
 30
0.0
  0
VERTEX
  8
CSLAYER1
  6
CONTINUOUS
 62
     7
 10
134.336465
 20
119.855967
 30
0.0
  0
VERTEX
  8
CSLAYER1
  6
CONTINUOUS
 62
     7
 10
134.444626
 20
119.903333
 30
0.0
  0
VERTEX
  8
CSLAYER1
  6
CONTINUOUS
 62
     7
 10
134.549404
 20
119.963611
 30
0.0
  0
VERTEX
  8
CSLAYER1
  6
CONTINUOUS
 62
     7
 10
134.650000
 20
120.036343
 30
0.0
  0
VERTEX
  8
CSLAYER1
  6
CONTINUOUS
 62
     7
 10
134.745649
 20
120.120975
 30
0.0
  0
VERTEX
  8
CSLAYER1
  6
CONTINUOUS
 62
     7
 10
134.835624
 20
120.216864
 30
0.0
  0
VERTEX
  8
CSLAYER1
  6
CONTINUOUS
 62
     7
 10
134.919239
 20
120.323279
 30
0.0
  0
VERTEX
  8
CSLAYER1
  6
CONTINUOUS
 62
     7
 10
134.995858
 20
120.439411
 30
0.0
  0
VERTEX
  8
CSLAYER1
  6
CONTINUOUS
 62
     7
 10
135.064898
 20
120.564376
 30
0.0
  0
VERTEX
  8
CSLAYER1
  6
CONTINUOUS
 62
     7
 10
135.125833
 20
120.697222
 30
0.0
  0
VERTEX
  8
CSLAYER1
  6
CONTINUOUS
 62
     7
 10
135.178200
 20
120.836939
 30
0.0
  0
VERTEX
  8
CSLAYER1
  6
CONTINUOUS
 62
     7
 10
135.221600
 20
120.982464
 30
0.0
  0
VERTEX
  8
CSLAYER1
  6
CONTINUOUS
 62
     7
 10
135.255704
 20
121.132688
 30
0.0
  0
VERTEX
  8
CSLAYER1
  6
CONTINUOUS
 62
     7
 10
135.280250
 20
121.286469
 30
0.0
  0
VERTEX
  8
CSLAYER1
  6
CONTINUOUS
 62
     7
 10
135.295053
 20
121.442635
 30
0.0
  0
VERTEX
  8
CSLAYER1
  6
CONTINUOUS
 62
     7
 10
135.300000
 20
121.600000
 30
0.0
  0
VERTEX
  8
CSLAYER1
  6
CONTINUOUS
 62
     7
 10
135.295053
 20
121.757365
 30
0.0
  0
VERTEX
  8
CSLAYER1
  6
CONTINUOUS
 62
     7
 10
135.280250
 20
121.913531
 30
0.0
  0
VERTEX
  8
CSLAYER1
  6
CONTINUOUS
 62
     7
 10
135.255704
 20
122.067312
 30
0.0
  0
VERTEX
  8
CSLAYER1
  6
CONTINUOUS
 62
     7
 10
135.221600
 20
122.217536
 30
0.0
  0
VERTEX
  8
CSLAYER1
  6
CONTINUOUS
 62
     7
 10
135.178200
 20
122.363061
 30
0.0
  0
VERTEX
  8
CSLAYER1
  6
CONTINUOUS
 62
     7
 10
135.125833
 20
122.502778
 30
0.0
  0
VERTEX
  8
CSLAYER1
  6
CONTINUOUS
 62
     7
 10
135.064898
 20
122.635624
 30
0.0
  0
VERTEX
  8
CSLAYER1
  6
CONTINUOUS
 62
     7
 10
134.995858
 20
122.760589
 30
0.0
  0
VERTEX
  8
CSLAYER1
  6
CONTINUOUS
 62
     7
 10
134.919239
 20
122.876721
 30
0.0
  0
VERTEX
  8
CSLAYER1
  6
CONTINUOUS
 62
     7
 10
134.835624
 20
122.983136
 30
0.0
  0
VERTEX
  8
CSLAYER1
  6
CONTINUOUS
 62
     7
 10
134.745649
 20
123.079025
 30
0.0
  0
VERTEX
  8
CSLAYER1
  6
CONTINUOUS
 62
     7
 10
134.650000
 20
123.163657
 30
0.0
  0
VERTEX
  8
CSLAYER1
  6
CONTINUOUS
 62
     7
 10
134.549404
 20
123.236389
 30
0.0
  0
VERTEX
  8
CSLAYER1
  6
CONTINUOUS
 62
     7
 10
134.444626
 20
123.296667
 30
0.0
  0
VERTEX
  8
CSLAYER1
  6
CONTINUOUS
 62
     7
 10
134.336465
 20
123.344033
 30
0.0
  0
VERTEX
  8
CSLAYER1
  6
CONTINUOUS
 62
     7
 10
134.225743
 20
123.378125
 30
0.0
  0
VERTEX
  8
CSLAYER1
  6
CONTINUOUS
 62
     7
 10
134.113302
 20
123.398685
 30
0.0
  0
VERTEX
  8
CSLAYER1
  6
CONTINUOUS
 62
     7
 10
134.000000
 20
123.405556
 30
0.0
  0
SEQEND
  0
ARC
  8
CSLAYER1
  6
CONTINUOUS
 62
     3
 10
135.011111
 20
116.200000
 40
1.805556
 50
109.000802
 51
250.999198
  0
POLYLINE
  8
CSLAYER1
  6
CONTINUOUS
 62
     7
 66
     1
 10
0.0
 20
0.0
 30
0.0
  0
VERTEX
  8
CSLAYER1
  6
CONTINUOUS
 62
     7
 10
134.000000
 20
118.005556
 30
0.0
  0
VERTEX
  8
CSLAYER1
  6
CONTINUOUS
 62
     7
 10
133.886698
 20
117.998685
 30
0.0
  0
VERTEX
  8
CSLAYER1
  6
CONTINUOUS
 62
     7
 10
133.774257
 20
117.978125
 30
0.0
  0
VERTEX
  8
CSLAYER1
  6
CONTINUOUS
 62
     7
 10
133.663535
 20
117.944033
 30
0.0
  0
VERTEX
  8
CSLAYER1
  6
CONTINUOUS
 62
     7
 10
133.555374
 20
117.896667
 30
0.0
  0
VERTEX
  8
CSLAYER1
  6
CONTINUOUS
 62
     7
 10
133.450596
 20
117.836389
 30
0.0
  0
VERTEX
  8
CSLAYER1
  6
CONTINUOUS
 62
     7
 10
133.350000
 20
117.763657
 30
0.0
  0
VERTEX
  8
CSLAYER1
  6
CONTINUOUS
 62
     7
 10
133.254351
 20
117.679025
 30
0.0
  0
VERTEX
  8
CSLAYER1
  6
CONTINUOUS
 62
     7
 10
133.164376
 20
117.583136
 30
0.0
  0
VERTEX
  8
CSLAYER1
  6
CONTINUOUS
 62
     7
 10
133.080761
 20
117.476721
 30
0.0
  0
VERTEX
  8
CSLAYER1
  6
CONTINUOUS
 62
     7
 10
133.004142
 20
117.360589
 30
0.0
  0
VERTEX
  8
CSLAYER1
  6
CONTINUOUS
 62
     7
 10
132.935102
 20
117.235624
 30
0.0
  0
VERTEX
  8
CSLAYER1
  6
CONTINUOUS
 62
     7
 10
132.874167
 20
117.102778
 30
0.0
  0
VERTEX
  8
CSLAYER1
  6
CONTINUOUS
 62
     7
 10
132.821800
 20
116.963061
 30
0.0
  0
VERTEX
  8
CSLAYER1
  6
CONTINUOUS
 62
     7
 10
132.778400
 20
116.817536
 30
0.0
  0
VERTEX
  8
CSLAYER1
  6
CONTINUOUS
 62
     7
 10
132.744296
 20
116.667312
 30
0.0
  0
VERTEX
  8
CSLAYER1
  6
CONTINUOUS
 62
     7
 10
132.719750
 20
116.513531
 30
0.0
  0
VERTEX
  8
CSLAYER1
  6
CONTINUOUS
 62
     7
 10
132.704947
 20
116.357365
 30
0.0
  0
VERTEX
  8
CSLAYER1
  6
CONTINUOUS
 62
     7
 10
132.700000
 20
116.200000
 30
0.0
  0
VERTEX
  8
CSLAYER1
  6
CONTINUOUS
 62
     7
 10
132.704947
 20
116.042635
 30
0.0
  0
VERTEX
  8
CSLAYER1
  6
CONTINUOUS
 62
     7
 10
132.719750
 20
115.886469
 30
0.0
  0
VERTEX
  8
CSLAYER1
  6
CONTINUOUS
 62
     7
 10
132.744296
 20
115.732688
 30
0.0
  0
VERTEX
  8
CSLAYER1
  6
CONTINUOUS
 62
     7
 10
132.778400
 20
115.582464
 30
0.0
  0
VERTEX
  8
CSLAYER1
  6
CONTINUOUS
 62
     7
 10
132.821800
 20
115.436939
 30
0.0
  0
VERTEX
  8
CSLAYER1
  6
CONTINUOUS
 62
     7
 10
132.874167
 20
115.297222
 30
0.0
  0
VERTEX
  8
CSLAYER1
  6
CONTINUOUS
 62
     7
 10
132.935102
 20
115.164376
 30
0.0
  0
VERTEX
  8
CSLAYER1
  6
CONTINUOUS
 62
     7
 10
133.004142
 20
115.039411
 30
0.0
  0
VERTEX
  8
CSLAYER1
  6
CONTINUOUS
 62
     7
 10
133.080761
 20
114.923279
 30
0.0
  0
VERTEX
  8
CSLAYER1
  6
CONTINUOUS
 62
     7
 10
133.164376
 20
114.816864
 30
0.0
  0
VERTEX
  8
CSLAYER1
  6
CONTINUOUS
 62
     7
 10
133.254351
 20
114.720975
 30
0.0
  0
VERTEX
  8
CSLAYER1
  6
CONTINUOUS
 62
     7
 10
133.350000
 20
114.636343
 30
0.0
  0
VERTEX
  8
CSLAYER1
  6
CONTINUOUS
 62
     7
 10
133.450596
 20
114.563611
 30
0.0
  0
VERTEX
  8
CSLAYER1
  6
CONTINUOUS
 62
     7
 10
133.555374
 20
114.503333
 30
0.0
  0
VERTEX
  8
CSLAYER1
  6
CONTINUOUS
 62
     7
 10
133.663535
 20
114.455967
 30
0.0
  0
VERTEX
  8
CSLAYER1
  6
CONTINUOUS
 62
     7
 10
133.774257
 20
114.421875
 30
0.0
  0
VERTEX
  8
CSLAYER1
  6
CONTINUOUS
 62
     7
 10
133.886698
 20
114.401315
 30
0.0
  0
VERTEX
  8
CSLAYER1
  6
CONTINUOUS
 62
     7
 10
134.000000
 20
114.394444
 30
0.0
  0
VERTEX
  8
CSLAYER1
  6
CONTINUOUS
 62
     7
 10
134.113302
 20
114.401315
 30
0.0
  0
VERTEX
  8
CSLAYER1
  6
CONTINUOUS
 62
     7
 10
134.225743
 20
114.421875
 30
0.0
  0
VERTEX
  8
CSLAYER1
  6
CONTINUOUS
 62
     7
 10
134.336465
 20
114.455967
 30
0.0
  0
VERTEX
  8
CSLAYER1
  6
CONTINUOUS
 62
     7
 10
134.444626
 20
114.503333
 30
0.0
  0
VERTEX
  8
CSLAYER1
  6
CONTINUOUS
 62
     7
 10
134.549404
 20
114.563611
 30
0.0
  0
VERTEX
  8
CSLAYER1
  6
CONTINUOUS
 62
     7
 10
134.650000
 20
114.636343
 30
0.0
  0
VERTEX
  8
CSLAYER1
  6
CONTINUOUS
 62
     7
 10
134.745649
 20
114.720975
 30
0.0
  0
VERTEX
  8
CSLAYER1
  6
CONTINUOUS
 62
     7
 10
134.835624
 20
114.816864
 30
0.0
  0
VERTEX
  8
CSLAYER1
  6
CONTINUOUS
 62
     7
 10
134.919239
 20
114.923279
 30
0.0
  0
VERTEX
  8
CSLAYER1
  6
CONTINUOUS
 62
     7
 10
134.995858
 20
115.039411
 30
0.0
  0
VERTEX
  8
CSLAYER1
  6
CONTINUOUS
 62
     7
 10
135.064898
 20
115.164376
 30
0.0
  0
VERTEX
  8
CSLAYER1
  6
CONTINUOUS
 62
     7
 10
135.125833
 20
115.297222
 30
0.0
  0
VERTEX
  8
CSLAYER1
  6
CONTINUOUS
 62
     7
 10
135.178200
 20
115.436939
 30
0.0
  0
VERTEX
  8
CSLAYER1
  6
CONTINUOUS
 62
     7
 10
135.221600
 20
115.582464
 30
0.0
  0
VERTEX
  8
CSLAYER1
  6
CONTINUOUS
 62
     7
 10
135.255704
 20
115.732688
 30
0.0
  0
VERTEX
  8
CSLAYER1
  6
CONTINUOUS
 62
     7
 10
135.280250
 20
115.886469
 30
0.0
  0
VERTEX
  8
CSLAYER1
  6
CONTINUOUS
 62
     7
 10
135.295053
 20
116.042635
 30
0.0
  0
VERTEX
  8
CSLAYER1
  6
CONTINUOUS
 62
     7
 10
135.300000
 20
116.200000
 30
0.0
  0
VERTEX
  8
CSLAYER1
  6
CONTINUOUS
 62
     7
 10
135.295053
 20
116.357365
 30
0.0
  0
VERTEX
  8
CSLAYER1
  6
CONTINUOUS
 62
     7
 10
135.280250
 20
116.513531
 30
0.0
  0
VERTEX
  8
CSLAYER1
  6
CONTINUOUS
 62
     7
 10
135.255704
 20
116.667312
 30
0.0
  0
VERTEX
  8
CSLAYER1
  6
CONTINUOUS
 62
     7
 10
135.221600
 20
116.817536
 30
0.0
  0
VERTEX
  8
CSLAYER1
  6
CONTINUOUS
 62
     7
 10
135.178200
 20
116.963061
 30
0.0
  0
VERTEX
  8
CSLAYER1
  6
CONTINUOUS
 62
     7
 10
135.125833
 20
117.102778
 30
0.0
  0
VERTEX
  8
CSLAYER1
  6
CONTINUOUS
 62
     7
 10
135.064898
 20
117.235624
 30
0.0
  0
VERTEX
  8
CSLAYER1
  6
CONTINUOUS
 62
     7
 10
134.995858
 20
117.360589
 30
0.0
  0
VERTEX
  8
CSLAYER1
  6
CONTINUOUS
 62
     7
 10
134.919239
 20
117.476721
 30
0.0
  0
VERTEX
  8
CSLAYER1
  6
CONTINUOUS
 62
     7
 10
134.835624
 20
117.583136
 30
0.0
  0
VERTEX
  8
CSLAYER1
  6
CONTINUOUS
 62
     7
 10
134.745649
 20
117.679025
 30
0.0
  0
VERTEX
  8
CSLAYER1
  6
CONTINUOUS
 62
     7
 10
134.650000
 20
117.763657
 30
0.0
  0
VERTEX
  8
CSLAYER1
  6
CONTINUOUS
 62
     7
 10
134.549404
 20
117.836389
 30
0.0
  0
VERTEX
  8
CSLAYER1
  6
CONTINUOUS
 62
     7
 10
134.444626
 20
117.896667
 30
0.0
  0
VERTEX
  8
CSLAYER1
  6
CONTINUOUS
 62
     7
 10
134.336465
 20
117.944033
 30
0.0
  0
VERTEX
  8
CSLAYER1
  6
CONTINUOUS
 62
     7
 10
134.225743
 20
117.978125
 30
0.0
  0
VERTEX
  8
CSLAYER1
  6
CONTINUOUS
 62
     7
 10
134.113302
 20
117.998685
 30
0.0
  0
VERTEX
  8
CSLAYER1
  6
CONTINUOUS
 62
     7
 10
134.000000
 20
118.005556
 30
0.0
  0
SEQEND
  0
ARC
  8
CSLAYER1
  6
CONTINUOUS
 62
     3
 10
135.011111
 20
110.800000
 40
1.805556
 50
109.000802
 51
250.999198
  0
POLYLINE
  8
CSLAYER1
  6
CONTINUOUS
 62
     7
 66
     1
 10
0.0
 20
0.0
 30
0.0
  0
VERTEX
  8
CSLAYER1
  6
CONTINUOUS
 62
     7
 10
134.000000
 20
112.605556
 30
0.0
  0
VERTEX
  8
CSLAYER1
  6
CONTINUOUS
 62
     7
 10
133.886698
 20
112.598685
 30
0.0
  0
VERTEX
  8
CSLAYER1
  6
CONTINUOUS
 62
     7
 10
133.774257
 20
112.578125
 30
0.0
  0
VERTEX
  8
CSLAYER1
  6
CONTINUOUS
 62
     7
 10
133.663535
 20
112.544033
 30
0.0
  0
VERTEX
  8
CSLAYER1
  6
CONTINUOUS
 62
     7
 10
133.555374
 20
112.496667
 30
0.0
  0
VERTEX
  8
CSLAYER1
  6
CONTINUOUS
 62
     7
 10
133.450596
 20
112.436389
 30
0.0
  0
VERTEX
  8
CSLAYER1
  6
CONTINUOUS
 62
     7
 10
133.350000
 20
112.363657
 30
0.0
  0
VERTEX
  8
CSLAYER1
  6
CONTINUOUS
 62
     7
 10
133.254351
 20
112.279025
 30
0.0
  0
VERTEX
  8
CSLAYER1
  6
CONTINUOUS
 62
     7
 10
133.164376
 20
112.183136
 30
0.0
  0
VERTEX
  8
CSLAYER1
  6
CONTINUOUS
 62
     7
 10
133.080761
 20
112.076721
 30
0.0
  0
VERTEX
  8
CSLAYER1
  6
CONTINUOUS
 62
     7
 10
133.004142
 20
111.960589
 30
0.0
  0
VERTEX
  8
CSLAYER1
  6
CONTINUOUS
 62
     7
 10
132.935102
 20
111.835624
 30
0.0
  0
VERTEX
  8
CSLAYER1
  6
CONTINUOUS
 62
     7
 10
132.874167
 20
111.702778
 30
0.0
  0
VERTEX
  8
CSLAYER1
  6
CONTINUOUS
 62
     7
 10
132.821800
 20
111.563061
 30
0.0
  0
VERTEX
  8
CSLAYER1
  6
CONTINUOUS
 62
     7
 10
132.778400
 20
111.417536
 30
0.0
  0
VERTEX
  8
CSLAYER1
  6
CONTINUOUS
 62
     7
 10
132.744296
 20
111.267312
 30
0.0
  0
VERTEX
  8
CSLAYER1
  6
CONTINUOUS
 62
     7
 10
132.719750
 20
111.113531
 30
0.0
  0
VERTEX
  8
CSLAYER1
  6
CONTINUOUS
 62
     7
 10
132.704947
 20
110.957365
 30
0.0
  0
VERTEX
  8
CSLAYER1
  6
CONTINUOUS
 62
     7
 10
132.700000
 20
110.800000
 30
0.0
  0
VERTEX
  8
CSLAYER1
  6
CONTINUOUS
 62
     7
 10
132.704947
 20
110.642635
 30
0.0
  0
VERTEX
  8
CSLAYER1
  6
CONTINUOUS
 62
     7
 10
132.719750
 20
110.486469
 30
0.0
  0
VERTEX
  8
CSLAYER1
  6
CONTINUOUS
 62
     7
 10
132.744296
 20
110.332688
 30
0.0
  0
VERTEX
  8
CSLAYER1
  6
CONTINUOUS
 62
     7
 10
132.778400
 20
110.182464
 30
0.0
  0
VERTEX
  8
CSLAYER1
  6
CONTINUOUS
 62
     7
 10
132.821800
 20
110.036939
 30
0.0
  0
VERTEX
  8
CSLAYER1
  6
CONTINUOUS
 62
     7
 10
132.874167
 20
109.897222
 30
0.0
  0
VERTEX
  8
CSLAYER1
  6
CONTINUOUS
 62
     7
 10
132.935102
 20
109.764376
 30
0.0
  0
VERTEX
  8
CSLAYER1
  6
CONTINUOUS
 62
     7
 10
133.004142
 20
109.639411
 30
0.0
  0
VERTEX
  8
CSLAYER1
  6
CONTINUOUS
 62
     7
 10
133.080761
 20
109.523279
 30
0.0
  0
VERTEX
  8
CSLAYER1
  6
CONTINUOUS
 62
     7
 10
133.164376
 20
109.416864
 30
0.0
  0
VERTEX
  8
CSLAYER1
  6
CONTINUOUS
 62
     7
 10
133.254351
 20
109.320975
 30
0.0
  0
VERTEX
  8
CSLAYER1
  6
CONTINUOUS
 62
     7
 10
133.350000
 20
109.236343
 30
0.0
  0
VERTEX
  8
CSLAYER1
  6
CONTINUOUS
 62
     7
 10
133.450596
 20
109.163611
 30
0.0
  0
VERTEX
  8
CSLAYER1
  6
CONTINUOUS
 62
     7
 10
133.555374
 20
109.103333
 30
0.0
  0
VERTEX
  8
CSLAYER1
  6
CONTINUOUS
 62
     7
 10
133.663535
 20
109.055967
 30
0.0
  0
VERTEX
  8
CSLAYER1
  6
CONTINUOUS
 62
     7
 10
133.774257
 20
109.021875
 30
0.0
  0
VERTEX
  8
CSLAYER1
  6
CONTINUOUS
 62
     7
 10
133.886698
 20
109.001315
 30
0.0
  0
VERTEX
  8
CSLAYER1
  6
CONTINUOUS
 62
     7
 10
134.000000
 20
108.994444
 30
0.0
  0
VERTEX
  8
CSLAYER1
  6
CONTINUOUS
 62
     7
 10
134.113302
 20
109.001315
 30
0.0
  0
VERTEX
  8
CSLAYER1
  6
CONTINUOUS
 62
     7
 10
134.225743
 20
109.021875
 30
0.0
  0
VERTEX
  8
CSLAYER1
  6
CONTINUOUS
 62
     7
 10
134.336465
 20
109.055967
 30
0.0
  0
VERTEX
  8
CSLAYER1
  6
CONTINUOUS
 62
     7
 10
134.444626
 20
109.103333
 30
0.0
  0
VERTEX
  8
CSLAYER1
  6
CONTINUOUS
 62
     7
 10
134.549404
 20
109.163611
 30
0.0
  0
VERTEX
  8
CSLAYER1
  6
CONTINUOUS
 62
     7
 10
134.650000
 20
109.236343
 30
0.0
  0
VERTEX
  8
CSLAYER1
  6
CONTINUOUS
 62
     7
 10
134.745649
 20
109.320975
 30
0.0
  0
VERTEX
  8
CSLAYER1
  6
CONTINUOUS
 62
     7
 10
134.835624
 20
109.416864
 30
0.0
  0
VERTEX
  8
CSLAYER1
  6
CONTINUOUS
 62
     7
 10
134.919239
 20
109.523279
 30
0.0
  0
VERTEX
  8
CSLAYER1
  6
CONTINUOUS
 62
     7
 10
134.995858
 20
109.639411
 30
0.0
  0
VERTEX
  8
CSLAYER1
  6
CONTINUOUS
 62
     7
 10
135.064898
 20
109.764376
 30
0.0
  0
VERTEX
  8
CSLAYER1
  6
CONTINUOUS
 62
     7
 10
135.125833
 20
109.897222
 30
0.0
  0
VERTEX
  8
CSLAYER1
  6
CONTINUOUS
 62
     7
 10
135.178200
 20
110.036939
 30
0.0
  0
VERTEX
  8
CSLAYER1
  6
CONTINUOUS
 62
     7
 10
135.221600
 20
110.182464
 30
0.0
  0
VERTEX
  8
CSLAYER1
  6
CONTINUOUS
 62
     7
 10
135.255704
 20
110.332688
 30
0.0
  0
VERTEX
  8
CSLAYER1
  6
CONTINUOUS
 62
     7
 10
135.280250
 20
110.486469
 30
0.0
  0
VERTEX
  8
CSLAYER1
  6
CONTINUOUS
 62
     7
 10
135.295053
 20
110.642635
 30
0.0
  0
VERTEX
  8
CSLAYER1
  6
CONTINUOUS
 62
     7
 10
135.300000
 20
110.800000
 30
0.0
  0
VERTEX
  8
CSLAYER1
  6
CONTINUOUS
 62
     7
 10
135.295053
 20
110.957365
 30
0.0
  0
VERTEX
  8
CSLAYER1
  6
CONTINUOUS
 62
     7
 10
135.280250
 20
111.113531
 30
0.0
  0
VERTEX
  8
CSLAYER1
  6
CONTINUOUS
 62
     7
 10
135.255704
 20
111.267312
 30
0.0
  0
VERTEX
  8
CSLAYER1
  6
CONTINUOUS
 62
     7
 10
135.221600
 20
111.417536
 30
0.0
  0
VERTEX
  8
CSLAYER1
  6
CONTINUOUS
 62
     7
 10
135.178200
 20
111.563061
 30
0.0
  0
VERTEX
  8
CSLAYER1
  6
CONTINUOUS
 62
     7
 10
135.125833
 20
111.702778
 30
0.0
  0
VERTEX
  8
CSLAYER1
  6
CONTINUOUS
 62
     7
 10
135.064898
 20
111.835624
 30
0.0
  0
VERTEX
  8
CSLAYER1
  6
CONTINUOUS
 62
     7
 10
134.995858
 20
111.960589
 30
0.0
  0
VERTEX
  8
CSLAYER1
  6
CONTINUOUS
 62
     7
 10
134.919239
 20
112.076721
 30
0.0
  0
VERTEX
  8
CSLAYER1
  6
CONTINUOUS
 62
     7
 10
134.835624
 20
112.183136
 30
0.0
  0
VERTEX
  8
CSLAYER1
  6
CONTINUOUS
 62
     7
 10
134.745649
 20
112.279025
 30
0.0
  0
VERTEX
  8
CSLAYER1
  6
CONTINUOUS
 62
     7
 10
134.650000
 20
112.363657
 30
0.0
  0
VERTEX
  8
CSLAYER1
  6
CONTINUOUS
 62
     7
 10
134.549404
 20
112.436389
 30
0.0
  0
VERTEX
  8
CSLAYER1
  6
CONTINUOUS
 62
     7
 10
134.444626
 20
112.496667
 30
0.0
  0
VERTEX
  8
CSLAYER1
  6
CONTINUOUS
 62
     7
 10
134.336465
 20
112.544033
 30
0.0
  0
VERTEX
  8
CSLAYER1
  6
CONTINUOUS
 62
     7
 10
134.225743
 20
112.578125
 30
0.0
  0
VERTEX
  8
CSLAYER1
  6
CONTINUOUS
 62
     7
 10
134.113302
 20
112.598685
 30
0.0
  0
VERTEX
  8
CSLAYER1
  6
CONTINUOUS
 62
     7
 10
134.000000
 20
112.605556
 30
0.0
  0
SEQEND
  0
ARC
  8
CSLAYER1
  6
CONTINUOUS
 62
     3
 10
135.011111
 20
105.400000
 40
1.805556
 50
109.000802
 51
250.999198
  0
POLYLINE
  8
CSLAYER1
  6
CONTINUOUS
 62
     7
 66
     1
 10
0.0
 20
0.0
 30
0.0
  0
VERTEX
  8
CSLAYER1
  6
CONTINUOUS
 62
     7
 10
134.000000
 20
107.205556
 30
0.0
  0
VERTEX
  8
CSLAYER1
  6
CONTINUOUS
 62
     7
 10
133.886698
 20
107.198685
 30
0.0
  0
VERTEX
  8
CSLAYER1
  6
CONTINUOUS
 62
     7
 10
133.774257
 20
107.178125
 30
0.0
  0
VERTEX
  8
CSLAYER1
  6
CONTINUOUS
 62
     7
 10
133.663535
 20
107.144033
 30
0.0
  0
VERTEX
  8
CSLAYER1
  6
CONTINUOUS
 62
     7
 10
133.555374
 20
107.096667
 30
0.0
  0
VERTEX
  8
CSLAYER1
  6
CONTINUOUS
 62
     7
 10
133.450596
 20
107.036389
 30
0.0
  0
VERTEX
  8
CSLAYER1
  6
CONTINUOUS
 62
     7
 10
133.350000
 20
106.963657
 30
0.0
  0
VERTEX
  8
CSLAYER1
  6
CONTINUOUS
 62
     7
 10
133.254351
 20
106.879025
 30
0.0
  0
VERTEX
  8
CSLAYER1
  6
CONTINUOUS
 62
     7
 10
133.164376
 20
106.783136
 30
0.0
  0
VERTEX
  8
CSLAYER1
  6
CONTINUOUS
 62
     7
 10
133.080761
 20
106.676721
 30
0.0
  0
VERTEX
  8
CSLAYER1
  6
CONTINUOUS
 62
     7
 10
133.004142
 20
106.560589
 30
0.0
  0
VERTEX
  8
CSLAYER1
  6
CONTINUOUS
 62
     7
 10
132.935102
 20
106.435624
 30
0.0
  0
VERTEX
  8
CSLAYER1
  6
CONTINUOUS
 62
     7
 10
132.874167
 20
106.302778
 30
0.0
  0
VERTEX
  8
CSLAYER1
  6
CONTINUOUS
 62
     7
 10
132.821800
 20
106.163061
 30
0.0
  0
VERTEX
  8
CSLAYER1
  6
CONTINUOUS
 62
     7
 10
132.778400
 20
106.017536
 30
0.0
  0
VERTEX
  8
CSLAYER1
  6
CONTINUOUS
 62
     7
 10
132.744296
 20
105.867312
 30
0.0
  0
VERTEX
  8
CSLAYER1
  6
CONTINUOUS
 62
     7
 10
132.719750
 20
105.713531
 30
0.0
  0
VERTEX
  8
CSLAYER1
  6
CONTINUOUS
 62
     7
 10
132.704947
 20
105.557365
 30
0.0
  0
VERTEX
  8
CSLAYER1
  6
CONTINUOUS
 62
     7
 10
132.700000
 20
105.400000
 30
0.0
  0
VERTEX
  8
CSLAYER1
  6
CONTINUOUS
 62
     7
 10
132.704947
 20
105.242635
 30
0.0
  0
VERTEX
  8
CSLAYER1
  6
CONTINUOUS
 62
     7
 10
132.719750
 20
105.086469
 30
0.0
  0
VERTEX
  8
CSLAYER1
  6
CONTINUOUS
 62
     7
 10
132.744296
 20
104.932688
 30
0.0
  0
VERTEX
  8
CSLAYER1
  6
CONTINUOUS
 62
     7
 10
132.778400
 20
104.782464
 30
0.0
  0
VERTEX
  8
CSLAYER1
  6
CONTINUOUS
 62
     7
 10
132.821800
 20
104.636939
 30
0.0
  0
VERTEX
  8
CSLAYER1
  6
CONTINUOUS
 62
     7
 10
132.874167
 20
104.497222
 30
0.0
  0
VERTEX
  8
CSLAYER1
  6
CONTINUOUS
 62
     7
 10
132.935102
 20
104.364376
 30
0.0
  0
VERTEX
  8
CSLAYER1
  6
CONTINUOUS
 62
     7
 10
133.004142
 20
104.239411
 30
0.0
  0
VERTEX
  8
CSLAYER1
  6
CONTINUOUS
 62
     7
 10
133.080761
 20
104.123279
 30
0.0
  0
VERTEX
  8
CSLAYER1
  6
CONTINUOUS
 62
     7
 10
133.164376
 20
104.016864
 30
0.0
  0
VERTEX
  8
CSLAYER1
  6
CONTINUOUS
 62
     7
 10
133.254351
 20
103.920975
 30
0.0
  0
VERTEX
  8
CSLAYER1
  6
CONTINUOUS
 62
     7
 10
133.350000
 20
103.836343
 30
0.0
  0
VERTEX
  8
CSLAYER1
  6
CONTINUOUS
 62
     7
 10
133.450596
 20
103.763611
 30
0.0
  0
VERTEX
  8
CSLAYER1
  6
CONTINUOUS
 62
     7
 10
133.555374
 20
103.703333
 30
0.0
  0
VERTEX
  8
CSLAYER1
  6
CONTINUOUS
 62
     7
 10
133.663535
 20
103.655967
 30
0.0
  0
VERTEX
  8
CSLAYER1
  6
CONTINUOUS
 62
     7
 10
133.774257
 20
103.621875
 30
0.0
  0
VERTEX
  8
CSLAYER1
  6
CONTINUOUS
 62
     7
 10
133.886698
 20
103.601315
 30
0.0
  0
VERTEX
  8
CSLAYER1
  6
CONTINUOUS
 62
     7
 10
134.000000
 20
103.594444
 30
0.0
  0
VERTEX
  8
CSLAYER1
  6
CONTINUOUS
 62
     7
 10
134.113302
 20
103.601315
 30
0.0
  0
VERTEX
  8
CSLAYER1
  6
CONTINUOUS
 62
     7
 10
134.225743
 20
103.621875
 30
0.0
  0
VERTEX
  8
CSLAYER1
  6
CONTINUOUS
 62
     7
 10
134.336465
 20
103.655967
 30
0.0
  0
VERTEX
  8
CSLAYER1
  6
CONTINUOUS
 62
     7
 10
134.444626
 20
103.703333
 30
0.0
  0
VERTEX
  8
CSLAYER1
  6
CONTINUOUS
 62
     7
 10
134.549404
 20
103.763611
 30
0.0
  0
VERTEX
  8
CSLAYER1
  6
CONTINUOUS
 62
     7
 10
134.650000
 20
103.836343
 30
0.0
  0
VERTEX
  8
CSLAYER1
  6
CONTINUOUS
 62
     7
 10
134.745649
 20
103.920975
 30
0.0
  0
VERTEX
  8
CSLAYER1
  6
CONTINUOUS
 62
     7
 10
134.835624
 20
104.016864
 30
0.0
  0
VERTEX
  8
CSLAYER1
  6
CONTINUOUS
 62
     7
 10
134.919239
 20
104.123279
 30
0.0
  0
VERTEX
  8
CSLAYER1
  6
CONTINUOUS
 62
     7
 10
134.995858
 20
104.239411
 30
0.0
  0
VERTEX
  8
CSLAYER1
  6
CONTINUOUS
 62
     7
 10
135.064898
 20
104.364376
 30
0.0
  0
VERTEX
  8
CSLAYER1
  6
CONTINUOUS
 62
     7
 10
135.125833
 20
104.497222
 30
0.0
  0
VERTEX
  8
CSLAYER1
  6
CONTINUOUS
 62
     7
 10
135.178200
 20
104.636939
 30
0.0
  0
VERTEX
  8
CSLAYER1
  6
CONTINUOUS
 62
     7
 10
135.221600
 20
104.782464
 30
0.0
  0
VERTEX
  8
CSLAYER1
  6
CONTINUOUS
 62
     7
 10
135.255704
 20
104.932688
 30
0.0
  0
VERTEX
  8
CSLAYER1
  6
CONTINUOUS
 62
     7
 10
135.280250
 20
105.086469
 30
0.0
  0
VERTEX
  8
CSLAYER1
  6
CONTINUOUS
 62
     7
 10
135.295053
 20
105.242635
 30
0.0
  0
VERTEX
  8
CSLAYER1
  6
CONTINUOUS
 62
     7
 10
135.300000
 20
105.400000
 30
0.0
  0
VERTEX
  8
CSLAYER1
  6
CONTINUOUS
 62
     7
 10
135.295053
 20
105.557365
 30
0.0
  0
VERTEX
  8
CSLAYER1
  6
CONTINUOUS
 62
     7
 10
135.280250
 20
105.713531
 30
0.0
  0
VERTEX
  8
CSLAYER1
  6
CONTINUOUS
 62
     7
 10
135.255704
 20
105.867312
 30
0.0
  0
VERTEX
  8
CSLAYER1
  6
CONTINUOUS
 62
     7
 10
135.221600
 20
106.017536
 30
0.0
  0
VERTEX
  8
CSLAYER1
  6
CONTINUOUS
 62
     7
 10
135.178200
 20
106.163061
 30
0.0
  0
VERTEX
  8
CSLAYER1
  6
CONTINUOUS
 62
     7
 10
135.125833
 20
106.302778
 30
0.0
  0
VERTEX
  8
CSLAYER1
  6
CONTINUOUS
 62
     7
 10
135.064898
 20
106.435624
 30
0.0
  0
VERTEX
  8
CSLAYER1
  6
CONTINUOUS
 62
     7
 10
134.995858
 20
106.560589
 30
0.0
  0
VERTEX
  8
CSLAYER1
  6
CONTINUOUS
 62
     7
 10
134.919239
 20
106.676721
 30
0.0
  0
VERTEX
  8
CSLAYER1
  6
CONTINUOUS
 62
     7
 10
134.835624
 20
106.783136
 30
0.0
  0
VERTEX
  8
CSLAYER1
  6
CONTINUOUS
 62
     7
 10
134.745649
 20
106.879025
 30
0.0
  0
VERTEX
  8
CSLAYER1
  6
CONTINUOUS
 62
     7
 10
134.650000
 20
106.963657
 30
0.0
  0
VERTEX
  8
CSLAYER1
  6
CONTINUOUS
 62
     7
 10
134.549404
 20
107.036389
 30
0.0
  0
VERTEX
  8
CSLAYER1
  6
CONTINUOUS
 62
     7
 10
134.444626
 20
107.096667
 30
0.0
  0
VERTEX
  8
CSLAYER1
  6
CONTINUOUS
 62
     7
 10
134.336465
 20
107.144033
 30
0.0
  0
VERTEX
  8
CSLAYER1
  6
CONTINUOUS
 62
     7
 10
134.225743
 20
107.178125
 30
0.0
  0
VERTEX
  8
CSLAYER1
  6
CONTINUOUS
 62
     7
 10
134.113302
 20
107.198685
 30
0.0
  0
VERTEX
  8
CSLAYER1
  6
CONTINUOUS
 62
     7
 10
134.000000
 20
107.205556
 30
0.0
  0
SEQEND
  0
ARC
  8
CSLAYER1
  6
CONTINUOUS
 62
     3
 10
135.011111
 20
100.000000
 40
1.805556
 50
109.000802
 51
250.999198
  0
POLYLINE
  8
CSLAYER1
  6
CONTINUOUS
 62
     7
 66
     1
 10
0.0
 20
0.0
 30
0.0
  0
VERTEX
  8
CSLAYER1
  6
CONTINUOUS
 62
     7
 10
134.000000
 20
101.805556
 30
0.0
  0
VERTEX
  8
CSLAYER1
  6
CONTINUOUS
 62
     7
 10
133.886698
 20
101.798685
 30
0.0
  0
VERTEX
  8
CSLAYER1
  6
CONTINUOUS
 62
     7
 10
133.774257
 20
101.778125
 30
0.0
  0
VERTEX
  8
CSLAYER1
  6
CONTINUOUS
 62
     7
 10
133.663535
 20
101.744033
 30
0.0
  0
VERTEX
  8
CSLAYER1
  6
CONTINUOUS
 62
     7
 10
133.555374
 20
101.696667
 30
0.0
  0
VERTEX
  8
CSLAYER1
  6
CONTINUOUS
 62
     7
 10
133.450596
 20
101.636389
 30
0.0
  0
VERTEX
  8
CSLAYER1
  6
CONTINUOUS
 62
     7
 10
133.350000
 20
101.563657
 30
0.0
  0
VERTEX
  8
CSLAYER1
  6
CONTINUOUS
 62
     7
 10
133.254351
 20
101.479025
 30
0.0
  0
VERTEX
  8
CSLAYER1
  6
CONTINUOUS
 62
     7
 10
133.164376
 20
101.383136
 30
0.0
  0
VERTEX
  8
CSLAYER1
  6
CONTINUOUS
 62
     7
 10
133.080761
 20
101.276721
 30
0.0
  0
VERTEX
  8
CSLAYER1
  6
CONTINUOUS
 62
     7
 10
133.004142
 20
101.160589
 30
0.0
  0
VERTEX
  8
CSLAYER1
  6
CONTINUOUS
 62
     7
 10
132.935102
 20
101.035624
 30
0.0
  0
VERTEX
  8
CSLAYER1
  6
CONTINUOUS
 62
     7
 10
132.874167
 20
100.902778
 30
0.0
  0
VERTEX
  8
CSLAYER1
  6
CONTINUOUS
 62
     7
 10
132.821800
 20
100.763061
 30
0.0
  0
VERTEX
  8
CSLAYER1
  6
CONTINUOUS
 62
     7
 10
132.778400
 20
100.617536
 30
0.0
  0
VERTEX
  8
CSLAYER1
  6
CONTINUOUS
 62
     7
 10
132.744296
 20
100.467312
 30
0.0
  0
VERTEX
  8
CSLAYER1
  6
CONTINUOUS
 62
     7
 10
132.719750
 20
100.313531
 30
0.0
  0
VERTEX
  8
CSLAYER1
  6
CONTINUOUS
 62
     7
 10
132.704947
 20
100.157365
 30
0.0
  0
VERTEX
  8
CSLAYER1
  6
CONTINUOUS
 62
     7
 10
132.700000
 20
100.000000
 30
0.0
  0
VERTEX
  8
CSLAYER1
  6
CONTINUOUS
 62
     7
 10
132.704947
 20
99.842635
 30
0.0
  0
VERTEX
  8
CSLAYER1
  6
CONTINUOUS
 62
     7
 10
132.719750
 20
99.686469
 30
0.0
  0
VERTEX
  8
CSLAYER1
  6
CONTINUOUS
 62
     7
 10
132.744296
 20
99.532688
 30
0.0
  0
VERTEX
  8
CSLAYER1
  6
CONTINUOUS
 62
     7
 10
132.778400
 20
99.382464
 30
0.0
  0
VERTEX
  8
CSLAYER1
  6
CONTINUOUS
 62
     7
 10
132.821800
 20
99.236939
 30
0.0
  0
VERTEX
  8
CSLAYER1
  6
CONTINUOUS
 62
     7
 10
132.874167
 20
99.097222
 30
0.0
  0
VERTEX
  8
CSLAYER1
  6
CONTINUOUS
 62
     7
 10
132.935102
 20
98.964376
 30
0.0
  0
VERTEX
  8
CSLAYER1
  6
CONTINUOUS
 62
     7
 10
133.004142
 20
98.839411
 30
0.0
  0
VERTEX
  8
CSLAYER1
  6
CONTINUOUS
 62
     7
 10
133.080761
 20
98.723279
 30
0.0
  0
VERTEX
  8
CSLAYER1
  6
CONTINUOUS
 62
     7
 10
133.164376
 20
98.616864
 30
0.0
  0
VERTEX
  8
CSLAYER1
  6
CONTINUOUS
 62
     7
 10
133.254351
 20
98.520975
 30
0.0
  0
VERTEX
  8
CSLAYER1
  6
CONTINUOUS
 62
     7
 10
133.350000
 20
98.436343
 30
0.0
  0
VERTEX
  8
CSLAYER1
  6
CONTINUOUS
 62
     7
 10
133.450596
 20
98.363611
 30
0.0
  0
VERTEX
  8
CSLAYER1
  6
CONTINUOUS
 62
     7
 10
133.555374
 20
98.303333
 30
0.0
  0
VERTEX
  8
CSLAYER1
  6
CONTINUOUS
 62
     7
 10
133.663535
 20
98.255967
 30
0.0
  0
VERTEX
  8
CSLAYER1
  6
CONTINUOUS
 62
     7
 10
133.774257
 20
98.221875
 30
0.0
  0
VERTEX
  8
CSLAYER1
  6
CONTINUOUS
 62
     7
 10
133.886698
 20
98.201315
 30
0.0
  0
VERTEX
  8
CSLAYER1
  6
CONTINUOUS
 62
     7
 10
134.000000
 20
98.194444
 30
0.0
  0
VERTEX
  8
CSLAYER1
  6
CONTINUOUS
 62
     7
 10
134.113302
 20
98.201315
 30
0.0
  0
VERTEX
  8
CSLAYER1
  6
CONTINUOUS
 62
     7
 10
134.225743
 20
98.221875
 30
0.0
  0
VERTEX
  8
CSLAYER1
  6
CONTINUOUS
 62
     7
 10
134.336465
 20
98.255967
 30
0.0
  0
VERTEX
  8
CSLAYER1
  6
CONTINUOUS
 62
     7
 10
134.444626
 20
98.303333
 30
0.0
  0
VERTEX
  8
CSLAYER1
  6
CONTINUOUS
 62
     7
 10
134.549404
 20
98.363611
 30
0.0
  0
VERTEX
  8
CSLAYER1
  6
CONTINUOUS
 62
     7
 10
134.650000
 20
98.436343
 30
0.0
  0
VERTEX
  8
CSLAYER1
  6
CONTINUOUS
 62
     7
 10
134.745649
 20
98.520975
 30
0.0
  0
VERTEX
  8
CSLAYER1
  6
CONTINUOUS
 62
     7
 10
134.835624
 20
98.616864
 30
0.0
  0
VERTEX
  8
CSLAYER1
  6
CONTINUOUS
 62
     7
 10
134.919239
 20
98.723279
 30
0.0
  0
VERTEX
  8
CSLAYER1
  6
CONTINUOUS
 62
     7
 10
134.995858
 20
98.839411
 30
0.0
  0
VERTEX
  8
CSLAYER1
  6
CONTINUOUS
 62
     7
 10
135.064898
 20
98.964376
 30
0.0
  0
VERTEX
  8
CSLAYER1
  6
CONTINUOUS
 62
     7
 10
135.125833
 20
99.097222
 30
0.0
  0
VERTEX
  8
CSLAYER1
  6
CONTINUOUS
 62
     7
 10
135.178200
 20
99.236939
 30
0.0
  0
VERTEX
  8
CSLAYER1
  6
CONTINUOUS
 62
     7
 10
135.221600
 20
99.382464
 30
0.0
  0
VERTEX
  8
CSLAYER1
  6
CONTINUOUS
 62
     7
 10
135.255704
 20
99.532688
 30
0.0
  0
VERTEX
  8
CSLAYER1
  6
CONTINUOUS
 62
     7
 10
135.280250
 20
99.686469
 30
0.0
  0
VERTEX
  8
CSLAYER1
  6
CONTINUOUS
 62
     7
 10
135.295053
 20
99.842635
 30
0.0
  0
VERTEX
  8
CSLAYER1
  6
CONTINUOUS
 62
     7
 10
135.300000
 20
100.000000
 30
0.0
  0
VERTEX
  8
CSLAYER1
  6
CONTINUOUS
 62
     7
 10
135.295053
 20
100.157365
 30
0.0
  0
VERTEX
  8
CSLAYER1
  6
CONTINUOUS
 62
     7
 10
135.280250
 20
100.313531
 30
0.0
  0
VERTEX
  8
CSLAYER1
  6
CONTINUOUS
 62
     7
 10
135.255704
 20
100.467312
 30
0.0
  0
VERTEX
  8
CSLAYER1
  6
CONTINUOUS
 62
     7
 10
135.221600
 20
100.617536
 30
0.0
  0
VERTEX
  8
CSLAYER1
  6
CONTINUOUS
 62
     7
 10
135.178200
 20
100.763061
 30
0.0
  0
VERTEX
  8
CSLAYER1
  6
CONTINUOUS
 62
     7
 10
135.125833
 20
100.902778
 30
0.0
  0
VERTEX
  8
CSLAYER1
  6
CONTINUOUS
 62
     7
 10
135.064898
 20
101.035624
 30
0.0
  0
VERTEX
  8
CSLAYER1
  6
CONTINUOUS
 62
     7
 10
134.995858
 20
101.160589
 30
0.0
  0
VERTEX
  8
CSLAYER1
  6
CONTINUOUS
 62
     7
 10
134.919239
 20
101.276721
 30
0.0
  0
VERTEX
  8
CSLAYER1
  6
CONTINUOUS
 62
     7
 10
134.835624
 20
101.383136
 30
0.0
  0
VERTEX
  8
CSLAYER1
  6
CONTINUOUS
 62
     7
 10
134.745649
 20
101.479025
 30
0.0
  0
VERTEX
  8
CSLAYER1
  6
CONTINUOUS
 62
     7
 10
134.650000
 20
101.563657
 30
0.0
  0
VERTEX
  8
CSLAYER1
  6
CONTINUOUS
 62
     7
 10
134.549404
 20
101.636389
 30
0.0
  0
VERTEX
  8
CSLAYER1
  6
CONTINUOUS
 62
     7
 10
134.444626
 20
101.696667
 30
0.0
  0
VERTEX
  8
CSLAYER1
  6
CONTINUOUS
 62
     7
 10
134.336465
 20
101.744033
 30
0.0
  0
VERTEX
  8
CSLAYER1
  6
CONTINUOUS
 62
     7
 10
134.225743
 20
101.778125
 30
0.0
  0
VERTEX
  8
CSLAYER1
  6
CONTINUOUS
 62
     7
 10
134.113302
 20
101.798685
 30
0.0
  0
VERTEX
  8
CSLAYER1
  6
CONTINUOUS
 62
     7
 10
134.000000
 20
101.805556
 30
0.0
  0
SEQEND
  0
ARC
  8
CSLAYER1
  6
CONTINUOUS
 62
     3
 10
135.011111
 20
94.600000
 40
1.805556
 50
109.000802
 51
250.999198
  0
POLYLINE
  8
CSLAYER1
  6
CONTINUOUS
 62
     7
 66
     1
 10
0.0
 20
0.0
 30
0.0
  0
VERTEX
  8
CSLAYER1
  6
CONTINUOUS
 62
     7
 10
134.000000
 20
96.405556
 30
0.0
  0
VERTEX
  8
CSLAYER1
  6
CONTINUOUS
 62
     7
 10
133.886698
 20
96.398685
 30
0.0
  0
VERTEX
  8
CSLAYER1
  6
CONTINUOUS
 62
     7
 10
133.774257
 20
96.378125
 30
0.0
  0
VERTEX
  8
CSLAYER1
  6
CONTINUOUS
 62
     7
 10
133.663535
 20
96.344033
 30
0.0
  0
VERTEX
  8
CSLAYER1
  6
CONTINUOUS
 62
     7
 10
133.555374
 20
96.296667
 30
0.0
  0
VERTEX
  8
CSLAYER1
  6
CONTINUOUS
 62
     7
 10
133.450596
 20
96.236389
 30
0.0
  0
VERTEX
  8
CSLAYER1
  6
CONTINUOUS
 62
     7
 10
133.350000
 20
96.163657
 30
0.0
  0
VERTEX
  8
CSLAYER1
  6
CONTINUOUS
 62
     7
 10
133.254351
 20
96.079025
 30
0.0
  0
VERTEX
  8
CSLAYER1
  6
CONTINUOUS
 62
     7
 10
133.164376
 20
95.983136
 30
0.0
  0
VERTEX
  8
CSLAYER1
  6
CONTINUOUS
 62
     7
 10
133.080761
 20
95.876721
 30
0.0
  0
VERTEX
  8
CSLAYER1
  6
CONTINUOUS
 62
     7
 10
133.004142
 20
95.760589
 30
0.0
  0
VERTEX
  8
CSLAYER1
  6
CONTINUOUS
 62
     7
 10
132.935102
 20
95.635624
 30
0.0
  0
VERTEX
  8
CSLAYER1
  6
CONTINUOUS
 62
     7
 10
132.874167
 20
95.502778
 30
0.0
  0
VERTEX
  8
CSLAYER1
  6
CONTINUOUS
 62
     7
 10
132.821800
 20
95.363061
 30
0.0
  0
VERTEX
  8
CSLAYER1
  6
CONTINUOUS
 62
     7
 10
132.778400
 20
95.217536
 30
0.0
  0
VERTEX
  8
CSLAYER1
  6
CONTINUOUS
 62
     7
 10
132.744296
 20
95.067312
 30
0.0
  0
VERTEX
  8
CSLAYER1
  6
CONTINUOUS
 62
     7
 10
132.719750
 20
94.913531
 30
0.0
  0
VERTEX
  8
CSLAYER1
  6
CONTINUOUS
 62
     7
 10
132.704947
 20
94.757365
 30
0.0
  0
VERTEX
  8
CSLAYER1
  6
CONTINUOUS
 62
     7
 10
132.700000
 20
94.600000
 30
0.0
  0
VERTEX
  8
CSLAYER1
  6
CONTINUOUS
 62
     7
 10
132.704947
 20
94.442635
 30
0.0
  0
VERTEX
  8
CSLAYER1
  6
CONTINUOUS
 62
     7
 10
132.719750
 20
94.286469
 30
0.0
  0
VERTEX
  8
CSLAYER1
  6
CONTINUOUS
 62
     7
 10
132.744296
 20
94.132688
 30
0.0
  0
VERTEX
  8
CSLAYER1
  6
CONTINUOUS
 62
     7
 10
132.778400
 20
93.982464
 30
0.0
  0
VERTEX
  8
CSLAYER1
  6
CONTINUOUS
 62
     7
 10
132.821800
 20
93.836939
 30
0.0
  0
VERTEX
  8
CSLAYER1
  6
CONTINUOUS
 62
     7
 10
132.874167
 20
93.697222
 30
0.0
  0
VERTEX
  8
CSLAYER1
  6
CONTINUOUS
 62
     7
 10
132.935102
 20
93.564376
 30
0.0
  0
VERTEX
  8
CSLAYER1
  6
CONTINUOUS
 62
     7
 10
133.004142
 20
93.439411
 30
0.0
  0
VERTEX
  8
CSLAYER1
  6
CONTINUOUS
 62
     7
 10
133.080761
 20
93.323279
 30
0.0
  0
VERTEX
  8
CSLAYER1
  6
CONTINUOUS
 62
     7
 10
133.164376
 20
93.216864
 30
0.0
  0
VERTEX
  8
CSLAYER1
  6
CONTINUOUS
 62
     7
 10
133.254351
 20
93.120975
 30
0.0
  0
VERTEX
  8
CSLAYER1
  6
CONTINUOUS
 62
     7
 10
133.350000
 20
93.036343
 30
0.0
  0
VERTEX
  8
CSLAYER1
  6
CONTINUOUS
 62
     7
 10
133.450596
 20
92.963611
 30
0.0
  0
VERTEX
  8
CSLAYER1
  6
CONTINUOUS
 62
     7
 10
133.555374
 20
92.903333
 30
0.0
  0
VERTEX
  8
CSLAYER1
  6
CONTINUOUS
 62
     7
 10
133.663535
 20
92.855967
 30
0.0
  0
VERTEX
  8
CSLAYER1
  6
CONTINUOUS
 62
     7
 10
133.774257
 20
92.821875
 30
0.0
  0
VERTEX
  8
CSLAYER1
  6
CONTINUOUS
 62
     7
 10
133.886698
 20
92.801315
 30
0.0
  0
VERTEX
  8
CSLAYER1
  6
CONTINUOUS
 62
     7
 10
134.000000
 20
92.794444
 30
0.0
  0
VERTEX
  8
CSLAYER1
  6
CONTINUOUS
 62
     7
 10
134.113302
 20
92.801315
 30
0.0
  0
VERTEX
  8
CSLAYER1
  6
CONTINUOUS
 62
     7
 10
134.225743
 20
92.821875
 30
0.0
  0
VERTEX
  8
CSLAYER1
  6
CONTINUOUS
 62
     7
 10
134.336465
 20
92.855967
 30
0.0
  0
VERTEX
  8
CSLAYER1
  6
CONTINUOUS
 62
     7
 10
134.444626
 20
92.903333
 30
0.0
  0
VERTEX
  8
CSLAYER1
  6
CONTINUOUS
 62
     7
 10
134.549404
 20
92.963611
 30
0.0
  0
VERTEX
  8
CSLAYER1
  6
CONTINUOUS
 62
     7
 10
134.650000
 20
93.036343
 30
0.0
  0
VERTEX
  8
CSLAYER1
  6
CONTINUOUS
 62
     7
 10
134.745649
 20
93.120975
 30
0.0
  0
VERTEX
  8
CSLAYER1
  6
CONTINUOUS
 62
     7
 10
134.835624
 20
93.216864
 30
0.0
  0
VERTEX
  8
CSLAYER1
  6
CONTINUOUS
 62
     7
 10
134.919239
 20
93.323279
 30
0.0
  0
VERTEX
  8
CSLAYER1
  6
CONTINUOUS
 62
     7
 10
134.995858
 20
93.439411
 30
0.0
  0
VERTEX
  8
CSLAYER1
  6
CONTINUOUS
 62
     7
 10
135.064898
 20
93.564376
 30
0.0
  0
VERTEX
  8
CSLAYER1
  6
CONTINUOUS
 62
     7
 10
135.125833
 20
93.697222
 30
0.0
  0
VERTEX
  8
CSLAYER1
  6
CONTINUOUS
 62
     7
 10
135.178200
 20
93.836939
 30
0.0
  0
VERTEX
  8
CSLAYER1
  6
CONTINUOUS
 62
     7
 10
135.221600
 20
93.982464
 30
0.0
  0
VERTEX
  8
CSLAYER1
  6
CONTINUOUS
 62
     7
 10
135.255704
 20
94.132688
 30
0.0
  0
VERTEX
  8
CSLAYER1
  6
CONTINUOUS
 62
     7
 10
135.280250
 20
94.286469
 30
0.0
  0
VERTEX
  8
CSLAYER1
  6
CONTINUOUS
 62
     7
 10
135.295053
 20
94.442635
 30
0.0
  0
VERTEX
  8
CSLAYER1
  6
CONTINUOUS
 62
     7
 10
135.300000
 20
94.600000
 30
0.0
  0
VERTEX
  8
CSLAYER1
  6
CONTINUOUS
 62
     7
 10
135.295053
 20
94.757365
 30
0.0
  0
VERTEX
  8
CSLAYER1
  6
CONTINUOUS
 62
     7
 10
135.280250
 20
94.913531
 30
0.0
  0
VERTEX
  8
CSLAYER1
  6
CONTINUOUS
 62
     7
 10
135.255704
 20
95.067312
 30
0.0
  0
VERTEX
  8
CSLAYER1
  6
CONTINUOUS
 62
     7
 10
135.221600
 20
95.217536
 30
0.0
  0
VERTEX
  8
CSLAYER1
  6
CONTINUOUS
 62
     7
 10
135.178200
 20
95.363061
 30
0.0
  0
VERTEX
  8
CSLAYER1
  6
CONTINUOUS
 62
     7
 10
135.125833
 20
95.502778
 30
0.0
  0
VERTEX
  8
CSLAYER1
  6
CONTINUOUS
 62
     7
 10
135.064898
 20
95.635624
 30
0.0
  0
VERTEX
  8
CSLAYER1
  6
CONTINUOUS
 62
     7
 10
134.995858
 20
95.760589
 30
0.0
  0
VERTEX
  8
CSLAYER1
  6
CONTINUOUS
 62
     7
 10
134.919239
 20
95.876721
 30
0.0
  0
VERTEX
  8
CSLAYER1
  6
CONTINUOUS
 62
     7
 10
134.835624
 20
95.983136
 30
0.0
  0
VERTEX
  8
CSLAYER1
  6
CONTINUOUS
 62
     7
 10
134.745649
 20
96.079025
 30
0.0
  0
VERTEX
  8
CSLAYER1
  6
CONTINUOUS
 62
     7
 10
134.650000
 20
96.163657
 30
0.0
  0
VERTEX
  8
CSLAYER1
  6
CONTINUOUS
 62
     7
 10
134.549404
 20
96.236389
 30
0.0
  0
VERTEX
  8
CSLAYER1
  6
CONTINUOUS
 62
     7
 10
134.444626
 20
96.296667
 30
0.0
  0
VERTEX
  8
CSLAYER1
  6
CONTINUOUS
 62
     7
 10
134.336465
 20
96.344033
 30
0.0
  0
VERTEX
  8
CSLAYER1
  6
CONTINUOUS
 62
     7
 10
134.225743
 20
96.378125
 30
0.0
  0
VERTEX
  8
CSLAYER1
  6
CONTINUOUS
 62
     7
 10
134.113302
 20
96.398685
 30
0.0
  0
VERTEX
  8
CSLAYER1
  6
CONTINUOUS
 62
     7
 10
134.000000
 20
96.405556
 30
0.0
  0
SEQEND
  0
ARC
  8
CSLAYER1
  6
CONTINUOUS
 62
     3
 10
135.011111
 20
89.200000
 40
1.805556
 50
109.000802
 51
250.999198
  0
POLYLINE
  8
CSLAYER1
  6
CONTINUOUS
 62
     7
 66
     1
 10
0.0
 20
0.0
 30
0.0
  0
VERTEX
  8
CSLAYER1
  6
CONTINUOUS
 62
     7
 10
134.000000
 20
91.005556
 30
0.0
  0
VERTEX
  8
CSLAYER1
  6
CONTINUOUS
 62
     7
 10
133.886698
 20
90.998685
 30
0.0
  0
VERTEX
  8
CSLAYER1
  6
CONTINUOUS
 62
     7
 10
133.774257
 20
90.978125
 30
0.0
  0
VERTEX
  8
CSLAYER1
  6
CONTINUOUS
 62
     7
 10
133.663535
 20
90.944033
 30
0.0
  0
VERTEX
  8
CSLAYER1
  6
CONTINUOUS
 62
     7
 10
133.555374
 20
90.896667
 30
0.0
  0
VERTEX
  8
CSLAYER1
  6
CONTINUOUS
 62
     7
 10
133.450596
 20
90.836389
 30
0.0
  0
VERTEX
  8
CSLAYER1
  6
CONTINUOUS
 62
     7
 10
133.350000
 20
90.763657
 30
0.0
  0
VERTEX
  8
CSLAYER1
  6
CONTINUOUS
 62
     7
 10
133.254351
 20
90.679025
 30
0.0
  0
VERTEX
  8
CSLAYER1
  6
CONTINUOUS
 62
     7
 10
133.164376
 20
90.583136
 30
0.0
  0
VERTEX
  8
CSLAYER1
  6
CONTINUOUS
 62
     7
 10
133.080761
 20
90.476721
 30
0.0
  0
VERTEX
  8
CSLAYER1
  6
CONTINUOUS
 62
     7
 10
133.004142
 20
90.360589
 30
0.0
  0
VERTEX
  8
CSLAYER1
  6
CONTINUOUS
 62
     7
 10
132.935102
 20
90.235624
 30
0.0
  0
VERTEX
  8
CSLAYER1
  6
CONTINUOUS
 62
     7
 10
132.874167
 20
90.102778
 30
0.0
  0
VERTEX
  8
CSLAYER1
  6
CONTINUOUS
 62
     7
 10
132.821800
 20
89.963061
 30
0.0
  0
VERTEX
  8
CSLAYER1
  6
CONTINUOUS
 62
     7
 10
132.778400
 20
89.817536
 30
0.0
  0
VERTEX
  8
CSLAYER1
  6
CONTINUOUS
 62
     7
 10
132.744296
 20
89.667312
 30
0.0
  0
VERTEX
  8
CSLAYER1
  6
CONTINUOUS
 62
     7
 10
132.719750
 20
89.513531
 30
0.0
  0
VERTEX
  8
CSLAYER1
  6
CONTINUOUS
 62
     7
 10
132.704947
 20
89.357365
 30
0.0
  0
VERTEX
  8
CSLAYER1
  6
CONTINUOUS
 62
     7
 10
132.700000
 20
89.200000
 30
0.0
  0
VERTEX
  8
CSLAYER1
  6
CONTINUOUS
 62
     7
 10
132.704947
 20
89.042635
 30
0.0
  0
VERTEX
  8
CSLAYER1
  6
CONTINUOUS
 62
     7
 10
132.719750
 20
88.886469
 30
0.0
  0
VERTEX
  8
CSLAYER1
  6
CONTINUOUS
 62
     7
 10
132.744296
 20
88.732688
 30
0.0
  0
VERTEX
  8
CSLAYER1
  6
CONTINUOUS
 62
     7
 10
132.778400
 20
88.582464
 30
0.0
  0
VERTEX
  8
CSLAYER1
  6
CONTINUOUS
 62
     7
 10
132.821800
 20
88.436939
 30
0.0
  0
VERTEX
  8
CSLAYER1
  6
CONTINUOUS
 62
     7
 10
132.874167
 20
88.297222
 30
0.0
  0
VERTEX
  8
CSLAYER1
  6
CONTINUOUS
 62
     7
 10
132.935102
 20
88.164376
 30
0.0
  0
VERTEX
  8
CSLAYER1
  6
CONTINUOUS
 62
     7
 10
133.004142
 20
88.039411
 30
0.0
  0
VERTEX
  8
CSLAYER1
  6
CONTINUOUS
 62
     7
 10
133.080761
 20
87.923279
 30
0.0
  0
VERTEX
  8
CSLAYER1
  6
CONTINUOUS
 62
     7
 10
133.164376
 20
87.816864
 30
0.0
  0
VERTEX
  8
CSLAYER1
  6
CONTINUOUS
 62
     7
 10
133.254351
 20
87.720975
 30
0.0
  0
VERTEX
  8
CSLAYER1
  6
CONTINUOUS
 62
     7
 10
133.350000
 20
87.636343
 30
0.0
  0
VERTEX
  8
CSLAYER1
  6
CONTINUOUS
 62
     7
 10
133.450596
 20
87.563611
 30
0.0
  0
VERTEX
  8
CSLAYER1
  6
CONTINUOUS
 62
     7
 10
133.555374
 20
87.503333
 30
0.0
  0
VERTEX
  8
CSLAYER1
  6
CONTINUOUS
 62
     7
 10
133.663535
 20
87.455967
 30
0.0
  0
VERTEX
  8
CSLAYER1
  6
CONTINUOUS
 62
     7
 10
133.774257
 20
87.421875
 30
0.0
  0
VERTEX
  8
CSLAYER1
  6
CONTINUOUS
 62
     7
 10
133.886698
 20
87.401315
 30
0.0
  0
VERTEX
  8
CSLAYER1
  6
CONTINUOUS
 62
     7
 10
134.000000
 20
87.394444
 30
0.0
  0
VERTEX
  8
CSLAYER1
  6
CONTINUOUS
 62
     7
 10
134.113302
 20
87.401315
 30
0.0
  0
VERTEX
  8
CSLAYER1
  6
CONTINUOUS
 62
     7
 10
134.225743
 20
87.421875
 30
0.0
  0
VERTEX
  8
CSLAYER1
  6
CONTINUOUS
 62
     7
 10
134.336465
 20
87.455967
 30
0.0
  0
VERTEX
  8
CSLAYER1
  6
CONTINUOUS
 62
     7
 10
134.444626
 20
87.503333
 30
0.0
  0
VERTEX
  8
CSLAYER1
  6
CONTINUOUS
 62
     7
 10
134.549404
 20
87.563611
 30
0.0
  0
VERTEX
  8
CSLAYER1
  6
CONTINUOUS
 62
     7
 10
134.650000
 20
87.636343
 30
0.0
  0
VERTEX
  8
CSLAYER1
  6
CONTINUOUS
 62
     7
 10
134.745649
 20
87.720975
 30
0.0
  0
VERTEX
  8
CSLAYER1
  6
CONTINUOUS
 62
     7
 10
134.835624
 20
87.816864
 30
0.0
  0
VERTEX
  8
CSLAYER1
  6
CONTINUOUS
 62
     7
 10
134.919239
 20
87.923279
 30
0.0
  0
VERTEX
  8
CSLAYER1
  6
CONTINUOUS
 62
     7
 10
134.995858
 20
88.039411
 30
0.0
  0
VERTEX
  8
CSLAYER1
  6
CONTINUOUS
 62
     7
 10
135.064898
 20
88.164376
 30
0.0
  0
VERTEX
  8
CSLAYER1
  6
CONTINUOUS
 62
     7
 10
135.125833
 20
88.297222
 30
0.0
  0
VERTEX
  8
CSLAYER1
  6
CONTINUOUS
 62
     7
 10
135.178200
 20
88.436939
 30
0.0
  0
VERTEX
  8
CSLAYER1
  6
CONTINUOUS
 62
     7
 10
135.221600
 20
88.582464
 30
0.0
  0
VERTEX
  8
CSLAYER1
  6
CONTINUOUS
 62
     7
 10
135.255704
 20
88.732688
 30
0.0
  0
VERTEX
  8
CSLAYER1
  6
CONTINUOUS
 62
     7
 10
135.280250
 20
88.886469
 30
0.0
  0
VERTEX
  8
CSLAYER1
  6
CONTINUOUS
 62
     7
 10
135.295053
 20
89.042635
 30
0.0
  0
VERTEX
  8
CSLAYER1
  6
CONTINUOUS
 62
     7
 10
135.300000
 20
89.200000
 30
0.0
  0
VERTEX
  8
CSLAYER1
  6
CONTINUOUS
 62
     7
 10
135.295053
 20
89.357365
 30
0.0
  0
VERTEX
  8
CSLAYER1
  6
CONTINUOUS
 62
     7
 10
135.280250
 20
89.513531
 30
0.0
  0
VERTEX
  8
CSLAYER1
  6
CONTINUOUS
 62
     7
 10
135.255704
 20
89.667312
 30
0.0
  0
VERTEX
  8
CSLAYER1
  6
CONTINUOUS
 62
     7
 10
135.221600
 20
89.817536
 30
0.0
  0
VERTEX
  8
CSLAYER1
  6
CONTINUOUS
 62
     7
 10
135.178200
 20
89.963061
 30
0.0
  0
VERTEX
  8
CSLAYER1
  6
CONTINUOUS
 62
     7
 10
135.125833
 20
90.102778
 30
0.0
  0
VERTEX
  8
CSLAYER1
  6
CONTINUOUS
 62
     7
 10
135.064898
 20
90.235624
 30
0.0
  0
VERTEX
  8
CSLAYER1
  6
CONTINUOUS
 62
     7
 10
134.995858
 20
90.360589
 30
0.0
  0
VERTEX
  8
CSLAYER1
  6
CONTINUOUS
 62
     7
 10
134.919239
 20
90.476721
 30
0.0
  0
VERTEX
  8
CSLAYER1
  6
CONTINUOUS
 62
     7
 10
134.835624
 20
90.583136
 30
0.0
  0
VERTEX
  8
CSLAYER1
  6
CONTINUOUS
 62
     7
 10
134.745649
 20
90.679025
 30
0.0
  0
VERTEX
  8
CSLAYER1
  6
CONTINUOUS
 62
     7
 10
134.650000
 20
90.763657
 30
0.0
  0
VERTEX
  8
CSLAYER1
  6
CONTINUOUS
 62
     7
 10
134.549404
 20
90.836389
 30
0.0
  0
VERTEX
  8
CSLAYER1
  6
CONTINUOUS
 62
     7
 10
134.444626
 20
90.896667
 30
0.0
  0
VERTEX
  8
CSLAYER1
  6
CONTINUOUS
 62
     7
 10
134.336465
 20
90.944033
 30
0.0
  0
VERTEX
  8
CSLAYER1
  6
CONTINUOUS
 62
     7
 10
134.225743
 20
90.978125
 30
0.0
  0
VERTEX
  8
CSLAYER1
  6
CONTINUOUS
 62
     7
 10
134.113302
 20
90.998685
 30
0.0
  0
VERTEX
  8
CSLAYER1
  6
CONTINUOUS
 62
     7
 10
134.000000
 20
91.005556
 30
0.0
  0
SEQEND
  0
ARC
  8
CSLAYER1
  6
CONTINUOUS
 62
     3
 10
135.011111
 20
83.800000
 40
1.805556
 50
109.000802
 51
250.999198
  0
POLYLINE
  8
CSLAYER1
  6
CONTINUOUS
 62
     7
 66
     1
 10
0.0
 20
0.0
 30
0.0
  0
VERTEX
  8
CSLAYER1
  6
CONTINUOUS
 62
     7
 10
134.000000
 20
85.605556
 30
0.0
  0
VERTEX
  8
CSLAYER1
  6
CONTINUOUS
 62
     7
 10
133.886698
 20
85.598685
 30
0.0
  0
VERTEX
  8
CSLAYER1
  6
CONTINUOUS
 62
     7
 10
133.774257
 20
85.578125
 30
0.0
  0
VERTEX
  8
CSLAYER1
  6
CONTINUOUS
 62
     7
 10
133.663535
 20
85.544033
 30
0.0
  0
VERTEX
  8
CSLAYER1
  6
CONTINUOUS
 62
     7
 10
133.555374
 20
85.496667
 30
0.0
  0
VERTEX
  8
CSLAYER1
  6
CONTINUOUS
 62
     7
 10
133.450596
 20
85.436389
 30
0.0
  0
VERTEX
  8
CSLAYER1
  6
CONTINUOUS
 62
     7
 10
133.350000
 20
85.363657
 30
0.0
  0
VERTEX
  8
CSLAYER1
  6
CONTINUOUS
 62
     7
 10
133.254351
 20
85.279025
 30
0.0
  0
VERTEX
  8
CSLAYER1
  6
CONTINUOUS
 62
     7
 10
133.164376
 20
85.183136
 30
0.0
  0
VERTEX
  8
CSLAYER1
  6
CONTINUOUS
 62
     7
 10
133.080761
 20
85.076721
 30
0.0
  0
VERTEX
  8
CSLAYER1
  6
CONTINUOUS
 62
     7
 10
133.004142
 20
84.960589
 30
0.0
  0
VERTEX
  8
CSLAYER1
  6
CONTINUOUS
 62
     7
 10
132.935102
 20
84.835624
 30
0.0
  0
VERTEX
  8
CSLAYER1
  6
CONTINUOUS
 62
     7
 10
132.874167
 20
84.702778
 30
0.0
  0
VERTEX
  8
CSLAYER1
  6
CONTINUOUS
 62
     7
 10
132.821800
 20
84.563061
 30
0.0
  0
VERTEX
  8
CSLAYER1
  6
CONTINUOUS
 62
     7
 10
132.778400
 20
84.417536
 30
0.0
  0
VERTEX
  8
CSLAYER1
  6
CONTINUOUS
 62
     7
 10
132.744296
 20
84.267312
 30
0.0
  0
VERTEX
  8
CSLAYER1
  6
CONTINUOUS
 62
     7
 10
132.719750
 20
84.113531
 30
0.0
  0
VERTEX
  8
CSLAYER1
  6
CONTINUOUS
 62
     7
 10
132.704947
 20
83.957365
 30
0.0
  0
VERTEX
  8
CSLAYER1
  6
CONTINUOUS
 62
     7
 10
132.700000
 20
83.800000
 30
0.0
  0
VERTEX
  8
CSLAYER1
  6
CONTINUOUS
 62
     7
 10
132.704947
 20
83.642635
 30
0.0
  0
VERTEX
  8
CSLAYER1
  6
CONTINUOUS
 62
     7
 10
132.719750
 20
83.486469
 30
0.0
  0
VERTEX
  8
CSLAYER1
  6
CONTINUOUS
 62
     7
 10
132.744296
 20
83.332688
 30
0.0
  0
VERTEX
  8
CSLAYER1
  6
CONTINUOUS
 62
     7
 10
132.778400
 20
83.182464
 30
0.0
  0
VERTEX
  8
CSLAYER1
  6
CONTINUOUS
 62
     7
 10
132.821800
 20
83.036939
 30
0.0
  0
VERTEX
  8
CSLAYER1
  6
CONTINUOUS
 62
     7
 10
132.874167
 20
82.897222
 30
0.0
  0
VERTEX
  8
CSLAYER1
  6
CONTINUOUS
 62
     7
 10
132.935102
 20
82.764376
 30
0.0
  0
VERTEX
  8
CSLAYER1
  6
CONTINUOUS
 62
     7
 10
133.004142
 20
82.639411
 30
0.0
  0
VERTEX
  8
CSLAYER1
  6
CONTINUOUS
 62
     7
 10
133.080761
 20
82.523279
 30
0.0
  0
VERTEX
  8
CSLAYER1
  6
CONTINUOUS
 62
     7
 10
133.164376
 20
82.416864
 30
0.0
  0
VERTEX
  8
CSLAYER1
  6
CONTINUOUS
 62
     7
 10
133.254351
 20
82.320975
 30
0.0
  0
VERTEX
  8
CSLAYER1
  6
CONTINUOUS
 62
     7
 10
133.350000
 20
82.236343
 30
0.0
  0
VERTEX
  8
CSLAYER1
  6
CONTINUOUS
 62
     7
 10
133.450596
 20
82.163611
 30
0.0
  0
VERTEX
  8
CSLAYER1
  6
CONTINUOUS
 62
     7
 10
133.555374
 20
82.103333
 30
0.0
  0
VERTEX
  8
CSLAYER1
  6
CONTINUOUS
 62
     7
 10
133.663535
 20
82.055967
 30
0.0
  0
VERTEX
  8
CSLAYER1
  6
CONTINUOUS
 62
     7
 10
133.774257
 20
82.021875
 30
0.0
  0
VERTEX
  8
CSLAYER1
  6
CONTINUOUS
 62
     7
 10
133.886698
 20
82.001315
 30
0.0
  0
VERTEX
  8
CSLAYER1
  6
CONTINUOUS
 62
     7
 10
134.000000
 20
81.994444
 30
0.0
  0
VERTEX
  8
CSLAYER1
  6
CONTINUOUS
 62
     7
 10
134.113302
 20
82.001315
 30
0.0
  0
VERTEX
  8
CSLAYER1
  6
CONTINUOUS
 62
     7
 10
134.225743
 20
82.021875
 30
0.0
  0
VERTEX
  8
CSLAYER1
  6
CONTINUOUS
 62
     7
 10
134.336465
 20
82.055967
 30
0.0
  0
VERTEX
  8
CSLAYER1
  6
CONTINUOUS
 62
     7
 10
134.444626
 20
82.103333
 30
0.0
  0
VERTEX
  8
CSLAYER1
  6
CONTINUOUS
 62
     7
 10
134.549404
 20
82.163611
 30
0.0
  0
VERTEX
  8
CSLAYER1
  6
CONTINUOUS
 62
     7
 10
134.650000
 20
82.236343
 30
0.0
  0
VERTEX
  8
CSLAYER1
  6
CONTINUOUS
 62
     7
 10
134.745649
 20
82.320975
 30
0.0
  0
VERTEX
  8
CSLAYER1
  6
CONTINUOUS
 62
     7
 10
134.835624
 20
82.416864
 30
0.0
  0
VERTEX
  8
CSLAYER1
  6
CONTINUOUS
 62
     7
 10
134.919239
 20
82.523279
 30
0.0
  0
VERTEX
  8
CSLAYER1
  6
CONTINUOUS
 62
     7
 10
134.995858
 20
82.639411
 30
0.0
  0
VERTEX
  8
CSLAYER1
  6
CONTINUOUS
 62
     7
 10
135.064898
 20
82.764376
 30
0.0
  0
VERTEX
  8
CSLAYER1
  6
CONTINUOUS
 62
     7
 10
135.125833
 20
82.897222
 30
0.0
  0
VERTEX
  8
CSLAYER1
  6
CONTINUOUS
 62
     7
 10
135.178200
 20
83.036939
 30
0.0
  0
VERTEX
  8
CSLAYER1
  6
CONTINUOUS
 62
     7
 10
135.221600
 20
83.182464
 30
0.0
  0
VERTEX
  8
CSLAYER1
  6
CONTINUOUS
 62
     7
 10
135.255704
 20
83.332688
 30
0.0
  0
VERTEX
  8
CSLAYER1
  6
CONTINUOUS
 62
     7
 10
135.280250
 20
83.486469
 30
0.0
  0
VERTEX
  8
CSLAYER1
  6
CONTINUOUS
 62
     7
 10
135.295053
 20
83.642635
 30
0.0
  0
VERTEX
  8
CSLAYER1
  6
CONTINUOUS
 62
     7
 10
135.300000
 20
83.800000
 30
0.0
  0
VERTEX
  8
CSLAYER1
  6
CONTINUOUS
 62
     7
 10
135.295053
 20
83.957365
 30
0.0
  0
VERTEX
  8
CSLAYER1
  6
CONTINUOUS
 62
     7
 10
135.280250
 20
84.113531
 30
0.0
  0
VERTEX
  8
CSLAYER1
  6
CONTINUOUS
 62
     7
 10
135.255704
 20
84.267312
 30
0.0
  0
VERTEX
  8
CSLAYER1
  6
CONTINUOUS
 62
     7
 10
135.221600
 20
84.417536
 30
0.0
  0
VERTEX
  8
CSLAYER1
  6
CONTINUOUS
 62
     7
 10
135.178200
 20
84.563061
 30
0.0
  0
VERTEX
  8
CSLAYER1
  6
CONTINUOUS
 62
     7
 10
135.125833
 20
84.702778
 30
0.0
  0
VERTEX
  8
CSLAYER1
  6
CONTINUOUS
 62
     7
 10
135.064898
 20
84.835624
 30
0.0
  0
VERTEX
  8
CSLAYER1
  6
CONTINUOUS
 62
     7
 10
134.995858
 20
84.960589
 30
0.0
  0
VERTEX
  8
CSLAYER1
  6
CONTINUOUS
 62
     7
 10
134.919239
 20
85.076721
 30
0.0
  0
VERTEX
  8
CSLAYER1
  6
CONTINUOUS
 62
     7
 10
134.835624
 20
85.183136
 30
0.0
  0
VERTEX
  8
CSLAYER1
  6
CONTINUOUS
 62
     7
 10
134.745649
 20
85.279025
 30
0.0
  0
VERTEX
  8
CSLAYER1
  6
CONTINUOUS
 62
     7
 10
134.650000
 20
85.363657
 30
0.0
  0
VERTEX
  8
CSLAYER1
  6
CONTINUOUS
 62
     7
 10
134.549404
 20
85.436389
 30
0.0
  0
VERTEX
  8
CSLAYER1
  6
CONTINUOUS
 62
     7
 10
134.444626
 20
85.496667
 30
0.0
  0
VERTEX
  8
CSLAYER1
  6
CONTINUOUS
 62
     7
 10
134.336465
 20
85.544033
 30
0.0
  0
VERTEX
  8
CSLAYER1
  6
CONTINUOUS
 62
     7
 10
134.225743
 20
85.578125
 30
0.0
  0
VERTEX
  8
CSLAYER1
  6
CONTINUOUS
 62
     7
 10
134.113302
 20
85.598685
 30
0.0
  0
VERTEX
  8
CSLAYER1
  6
CONTINUOUS
 62
     7
 10
134.000000
 20
85.605556
 30
0.0
  0
SEQEND
  0
ARC
  8
CSLAYER1
  6
CONTINUOUS
 62
     3
 10
135.011111
 20
78.400000
 40
1.805556
 50
109.000802
 51
250.999198
  0
POLYLINE
  8
CSLAYER1
  6
CONTINUOUS
 62
     7
 66
     1
 10
0.0
 20
0.0
 30
0.0
  0
VERTEX
  8
CSLAYER1
  6
CONTINUOUS
 62
     7
 10
134.000000
 20
80.205556
 30
0.0
  0
VERTEX
  8
CSLAYER1
  6
CONTINUOUS
 62
     7
 10
133.886698
 20
80.198685
 30
0.0
  0
VERTEX
  8
CSLAYER1
  6
CONTINUOUS
 62
     7
 10
133.774257
 20
80.178125
 30
0.0
  0
VERTEX
  8
CSLAYER1
  6
CONTINUOUS
 62
     7
 10
133.663535
 20
80.144033
 30
0.0
  0
VERTEX
  8
CSLAYER1
  6
CONTINUOUS
 62
     7
 10
133.555374
 20
80.096667
 30
0.0
  0
VERTEX
  8
CSLAYER1
  6
CONTINUOUS
 62
     7
 10
133.450596
 20
80.036389
 30
0.0
  0
VERTEX
  8
CSLAYER1
  6
CONTINUOUS
 62
     7
 10
133.350000
 20
79.963657
 30
0.0
  0
VERTEX
  8
CSLAYER1
  6
CONTINUOUS
 62
     7
 10
133.254351
 20
79.879025
 30
0.0
  0
VERTEX
  8
CSLAYER1
  6
CONTINUOUS
 62
     7
 10
133.164376
 20
79.783136
 30
0.0
  0
VERTEX
  8
CSLAYER1
  6
CONTINUOUS
 62
     7
 10
133.080761
 20
79.676721
 30
0.0
  0
VERTEX
  8
CSLAYER1
  6
CONTINUOUS
 62
     7
 10
133.004142
 20
79.560589
 30
0.0
  0
VERTEX
  8
CSLAYER1
  6
CONTINUOUS
 62
     7
 10
132.935102
 20
79.435624
 30
0.0
  0
VERTEX
  8
CSLAYER1
  6
CONTINUOUS
 62
     7
 10
132.874167
 20
79.302778
 30
0.0
  0
VERTEX
  8
CSLAYER1
  6
CONTINUOUS
 62
     7
 10
132.821800
 20
79.163061
 30
0.0
  0
VERTEX
  8
CSLAYER1
  6
CONTINUOUS
 62
     7
 10
132.778400
 20
79.017536
 30
0.0
  0
VERTEX
  8
CSLAYER1
  6
CONTINUOUS
 62
     7
 10
132.744296
 20
78.867312
 30
0.0
  0
VERTEX
  8
CSLAYER1
  6
CONTINUOUS
 62
     7
 10
132.719750
 20
78.713531
 30
0.0
  0
VERTEX
  8
CSLAYER1
  6
CONTINUOUS
 62
     7
 10
132.704947
 20
78.557365
 30
0.0
  0
VERTEX
  8
CSLAYER1
  6
CONTINUOUS
 62
     7
 10
132.700000
 20
78.400000
 30
0.0
  0
VERTEX
  8
CSLAYER1
  6
CONTINUOUS
 62
     7
 10
132.704947
 20
78.242635
 30
0.0
  0
VERTEX
  8
CSLAYER1
  6
CONTINUOUS
 62
     7
 10
132.719750
 20
78.086469
 30
0.0
  0
VERTEX
  8
CSLAYER1
  6
CONTINUOUS
 62
     7
 10
132.744296
 20
77.932688
 30
0.0
  0
VERTEX
  8
CSLAYER1
  6
CONTINUOUS
 62
     7
 10
132.778400
 20
77.782464
 30
0.0
  0
VERTEX
  8
CSLAYER1
  6
CONTINUOUS
 62
     7
 10
132.821800
 20
77.636939
 30
0.0
  0
VERTEX
  8
CSLAYER1
  6
CONTINUOUS
 62
     7
 10
132.874167
 20
77.497222
 30
0.0
  0
VERTEX
  8
CSLAYER1
  6
CONTINUOUS
 62
     7
 10
132.935102
 20
77.364376
 30
0.0
  0
VERTEX
  8
CSLAYER1
  6
CONTINUOUS
 62
     7
 10
133.004142
 20
77.239411
 30
0.0
  0
VERTEX
  8
CSLAYER1
  6
CONTINUOUS
 62
     7
 10
133.080761
 20
77.123279
 30
0.0
  0
VERTEX
  8
CSLAYER1
  6
CONTINUOUS
 62
     7
 10
133.164376
 20
77.016864
 30
0.0
  0
VERTEX
  8
CSLAYER1
  6
CONTINUOUS
 62
     7
 10
133.254351
 20
76.920975
 30
0.0
  0
VERTEX
  8
CSLAYER1
  6
CONTINUOUS
 62
     7
 10
133.350000
 20
76.836343
 30
0.0
  0
VERTEX
  8
CSLAYER1
  6
CONTINUOUS
 62
     7
 10
133.450596
 20
76.763611
 30
0.0
  0
VERTEX
  8
CSLAYER1
  6
CONTINUOUS
 62
     7
 10
133.555374
 20
76.703333
 30
0.0
  0
VERTEX
  8
CSLAYER1
  6
CONTINUOUS
 62
     7
 10
133.663535
 20
76.655967
 30
0.0
  0
VERTEX
  8
CSLAYER1
  6
CONTINUOUS
 62
     7
 10
133.774257
 20
76.621875
 30
0.0
  0
VERTEX
  8
CSLAYER1
  6
CONTINUOUS
 62
     7
 10
133.886698
 20
76.601315
 30
0.0
  0
VERTEX
  8
CSLAYER1
  6
CONTINUOUS
 62
     7
 10
134.000000
 20
76.594444
 30
0.0
  0
VERTEX
  8
CSLAYER1
  6
CONTINUOUS
 62
     7
 10
134.113302
 20
76.601315
 30
0.0
  0
VERTEX
  8
CSLAYER1
  6
CONTINUOUS
 62
     7
 10
134.225743
 20
76.621875
 30
0.0
  0
VERTEX
  8
CSLAYER1
  6
CONTINUOUS
 62
     7
 10
134.336465
 20
76.655967
 30
0.0
  0
VERTEX
  8
CSLAYER1
  6
CONTINUOUS
 62
     7
 10
134.444626
 20
76.703333
 30
0.0
  0
VERTEX
  8
CSLAYER1
  6
CONTINUOUS
 62
     7
 10
134.549404
 20
76.763611
 30
0.0
  0
VERTEX
  8
CSLAYER1
  6
CONTINUOUS
 62
     7
 10
134.650000
 20
76.836343
 30
0.0
  0
VERTEX
  8
CSLAYER1
  6
CONTINUOUS
 62
     7
 10
134.745649
 20
76.920975
 30
0.0
  0
VERTEX
  8
CSLAYER1
  6
CONTINUOUS
 62
     7
 10
134.835624
 20
77.016864
 30
0.0
  0
VERTEX
  8
CSLAYER1
  6
CONTINUOUS
 62
     7
 10
134.919239
 20
77.123279
 30
0.0
  0
VERTEX
  8
CSLAYER1
  6
CONTINUOUS
 62
     7
 10
134.995858
 20
77.239411
 30
0.0
  0
VERTEX
  8
CSLAYER1
  6
CONTINUOUS
 62
     7
 10
135.064898
 20
77.364376
 30
0.0
  0
VERTEX
  8
CSLAYER1
  6
CONTINUOUS
 62
     7
 10
135.125833
 20
77.497222
 30
0.0
  0
VERTEX
  8
CSLAYER1
  6
CONTINUOUS
 62
     7
 10
135.178200
 20
77.636939
 30
0.0
  0
VERTEX
  8
CSLAYER1
  6
CONTINUOUS
 62
     7
 10
135.221600
 20
77.782464
 30
0.0
  0
VERTEX
  8
CSLAYER1
  6
CONTINUOUS
 62
     7
 10
135.255704
 20
77.932688
 30
0.0
  0
VERTEX
  8
CSLAYER1
  6
CONTINUOUS
 62
     7
 10
135.280250
 20
78.086469
 30
0.0
  0
VERTEX
  8
CSLAYER1
  6
CONTINUOUS
 62
     7
 10
135.295053
 20
78.242635
 30
0.0
  0
VERTEX
  8
CSLAYER1
  6
CONTINUOUS
 62
     7
 10
135.300000
 20
78.400000
 30
0.0
  0
VERTEX
  8
CSLAYER1
  6
CONTINUOUS
 62
     7
 10
135.295053
 20
78.557365
 30
0.0
  0
VERTEX
  8
CSLAYER1
  6
CONTINUOUS
 62
     7
 10
135.280250
 20
78.713531
 30
0.0
  0
VERTEX
  8
CSLAYER1
  6
CONTINUOUS
 62
     7
 10
135.255704
 20
78.867312
 30
0.0
  0
VERTEX
  8
CSLAYER1
  6
CONTINUOUS
 62
     7
 10
135.221600
 20
79.017536
 30
0.0
  0
VERTEX
  8
CSLAYER1
  6
CONTINUOUS
 62
     7
 10
135.178200
 20
79.163061
 30
0.0
  0
VERTEX
  8
CSLAYER1
  6
CONTINUOUS
 62
     7
 10
135.125833
 20
79.302778
 30
0.0
  0
VERTEX
  8
CSLAYER1
  6
CONTINUOUS
 62
     7
 10
135.064898
 20
79.435624
 30
0.0
  0
VERTEX
  8
CSLAYER1
  6
CONTINUOUS
 62
     7
 10
134.995858
 20
79.560589
 30
0.0
  0
VERTEX
  8
CSLAYER1
  6
CONTINUOUS
 62
     7
 10
134.919239
 20
79.676721
 30
0.0
  0
VERTEX
  8
CSLAYER1
  6
CONTINUOUS
 62
     7
 10
134.835624
 20
79.783136
 30
0.0
  0
VERTEX
  8
CSLAYER1
  6
CONTINUOUS
 62
     7
 10
134.745649
 20
79.879025
 30
0.0
  0
VERTEX
  8
CSLAYER1
  6
CONTINUOUS
 62
     7
 10
134.650000
 20
79.963657
 30
0.0
  0
VERTEX
  8
CSLAYER1
  6
CONTINUOUS
 62
     7
 10
134.549404
 20
80.036389
 30
0.0
  0
VERTEX
  8
CSLAYER1
  6
CONTINUOUS
 62
     7
 10
134.444626
 20
80.096667
 30
0.0
  0
VERTEX
  8
CSLAYER1
  6
CONTINUOUS
 62
     7
 10
134.336465
 20
80.144033
 30
0.0
  0
VERTEX
  8
CSLAYER1
  6
CONTINUOUS
 62
     7
 10
134.225743
 20
80.178125
 30
0.0
  0
VERTEX
  8
CSLAYER1
  6
CONTINUOUS
 62
     7
 10
134.113302
 20
80.198685
 30
0.0
  0
VERTEX
  8
CSLAYER1
  6
CONTINUOUS
 62
     7
 10
134.000000
 20
80.205556
 30
0.0
  0
SEQEND
  0
LINE
  8
CSLAYER1
  6
CONTINUOUS
 62
     3
 10
134.976666
 20
122.791634
 11
133.622438
 21
120.446043
  0
LINE
  8
CSLAYER1
  6
CONTINUOUS
 62
     3
 10
134.976666
 20
117.391634
 11
133.622438
 21
115.046043
  0
LINE
  8
CSLAYER1
  6
CONTINUOUS
 62
     3
 10
134.976666
 20
111.991634
 11
133.622438
 21
109.646043
  0
LINE
  8
CSLAYER1
  6
CONTINUOUS
 62
     3
 10
134.976666
 20
106.591634
 11
133.622438
 21
104.246043
  0
LINE
  8
CSLAYER1
  6
CONTINUOUS
 62
     3
 10
134.976666
 20
101.191634
 11
133.622438
 21
98.846043
  0
LINE
  8
CSLAYER1
  6
CONTINUOUS
 62
     3
 10
134.976666
 20
95.791634
 11
133.622438
 21
93.446043
  0
LINE
  8
CSLAYER1
  6
CONTINUOUS
 62
     3
 10
134.976666
 20
90.391634
 11
133.622438
 21
88.046043
  0
LINE
  8
CSLAYER1
  6
CONTINUOUS
 62
     3
 10
134.976666
 20
84.991634
 11
133.622438
 21
82.646043
  0
LINE
  8
CSLAYER1
  6
CONTINUOUS
 62
     3
 10
134.976666
 20
79.591634
 11
133.622438
 21
77.246043
  0
LINE
  8
CSLAYER1
  6
PHANTOM
 62
     3
 10
133.480000
 20
38.990000
 11
131.500000
 21
38.990000
  0
LINE
  8
CSLAYER1
  6
PHANTOM
 62
     3
 10
133.480000
 20
38.357664
 11
133.480000
 21
38.990000
  0
LINE
  8
CSLAYER1
  6
CONTINUOUS
 62
     6
 10
133.273503
 20
38.000000
 11
132.490000
 21
38.000000
  0
LINE
  8
CSLAYER1
  6
CONTINUOUS
 62
     6
 10
132.490000
 20
36.642934
 11
132.490000
 21
38.000000
  0
CIRCLE
  8
CSLAYER1
  6
CONTINUOUS
 62
     7
 10
252.500000
 20
277.500000
 40
1.500000
  0
CIRCLE
  8
CSLAYER1
  6
CONTINUOUS
 62
     7
 10
172.500000
 20
277.500000
 40
1.500000
  0
CIRCLE
  8
CSLAYER1
  6
CONTINUOUS
 62
     7
 10
252.500000
 20
68.500000
 40
1.500000
  0
CIRCLE
  8
CSLAYER1
  6
CONTINUOUS
 62
     7
 10
172.500000
 20
68.500000
 40
1.500000
  0
LINE
  8
CSLAYER1
  6
DOT
 62
     3
 10
162.500000
 20
133.383775
 11
162.500000
 21
210.646758
  0
LINE
  8
CSLAYER1
  6
DOT
 62
     3
 10
202.500000
 20
97.256825
 11
202.500000
 21
111.295870
  0
LINE
  8
CSLAYER1
  6
DOT
 62
     3
 10
192.500000
 20
97.256825
 11
192.500000
 21
111.295870
  0
LINE
  8
CSLAYER1
  6
DOT
 62
     3
 10
182.500000
 20
97.256825
 11
182.500000
 21
111.295870
  0
LINE
  8
CSLAYER1
  6
DOT
 62
     3
 10
209.523584
 20
104.000000
 11
177.535885
 21
104.000000
  0
LINE
  8
CSLAYER1
  6
DOT
 62
     3
 10
166.500000
 20
81.256825
 11
166.500000
 21
95.295870
  0
LINE
  8
CSLAYER1
  6
DOT
 62
     3
 10
170.776776
 20
87.500000
 11
161.535885
 21
87.500000
  0
LINE
  8
CSLAYER1
  6
DOT
 62
     3
 10
190.500000
 20
74.865435
 11
190.500000
 21
88.549062
  0
LINE
  8
CSLAYER1
  6
DOT
 62
     3
 10
196.550795
 20
81.500000
 11
184.466554
 21
81.500000
  0
LINE
  8
CSLAYER1
  6
DOT
 62
     3
 10
203.500000
 20
79.308171
 11
203.500000
 21
92.458670
  0
LINE
  8
CSLAYER1
  6
DOT
 62
     3
 10
212.500000
 20
79.308171
 11
212.500000
 21
92.458670
  0
LINE
  8
CSLAYER1
  6
DOT
 62
     3
 10
219.830732
 20
85.500000
 11
196.373086
 21
85.500000
  0
LINE
  8
CSLAYER1
  6
DOT
 62
     3
 10
168.500000
 20
133.383775
 11
168.500000
 21
210.646758
  0
LINE
  8
CSLAYER1
  6
DOT
 62
     3
 10
335.000000
 20
68.500000
 11
344.000000
 21
68.500000
  0
LINE
  8
CSLAYER1
  6
DOT
 62
     3
 10
339.500000
 20
73.000000
 11
339.500000
 21
64.000000
  0
LINE
  8
CSLAYER1
  6
DOT
 62
     3
 10
248.000000
 20
277.500000
 11
257.000000
 21
277.500000
  0
LINE
  8
CSLAYER1
  6
DOT
 62
     3
 10
252.500000
 20
282.000000
 11
252.500000
 21
273.000000
  0
LINE
  8
CSLAYER1
  6
DOT
 62
     3
 10
168.000000
 20
277.500000
 11
177.000000
 21
277.500000
  0
LINE
  8
CSLAYER1
  6
DOT
 62
     3
 10
172.500000
 20
282.000000
 11
172.500000
 21
273.000000
  0
LINE
  8
CSLAYER1
  6
DOT
 62
     3
 10
248.000000
 20
68.500000
 11
257.000000
 21
68.500000
  0
LINE
  8
CSLAYER1
  6
DOT
 62
     3
 10
252.500000
 20
73.000000
 11
252.500000
 21
64.000000
  0
LINE
  8
CSLAYER1
  6
DOT
 62
     3
 10
168.000000
 20
68.500000
 11
177.000000
 21
68.500000
  0
LINE
  8
CSLAYER1
  6
DOT
 62
     3
 10
172.500000
 20
73.000000
 11
172.500000
 21
64.000000
  0
ENDSEC
  0
EOF
