  0
SECTION
  2
HEADER
  9
$ACADVER
  1
AC1006
  9
$INSBASE
 10
0.000000
 20
0.000000
 30
0.0
  9
$EXTMIN
 10
0.000000
 20
0.000000
  9
$EXTMAX
 10
420.000000
 20
297.000000
  9
$LIMMIN
 10
0.000000
 20
0.000000
  9
$LIMMAX
 10
420.000000
 20
297.000000
  9
$VIEWCTR
 10
210.000000
 20
148.500000
  9
$VIEWSIZE
 40
297.000000
  9
$SNAPMODE
 70
     0
  9
$SNAPUNIT
 10
1.0
 20
1.0
  9
$SNAPBASE
 10
0.0
 20
0.0
  9
$SNAPANG
 50
0.0
  9
$SNAPSTYLE
 70
     0
  9
$SNAPISOPAIR
 70
     0
  9
$GRIDMODE
 70
     0
  9
$GRIDUNIT
 10
0.0
 20
0.0
  9
$ORTHOMODE
 70
     0
  9
$REGENMODE
 70
     1
  9
$FILLMODE
 70
     1
  9
$QTEXTMODE
 70
     0
  9
$DRAGMODE
 70
     2
  9
$LTSCALE
 40
15.000000
  9
$OSMODE
 70
     0
  9
$ATTMODE
 70
     1
  9
$TEXTSIZE
 40
0.2
  9
$TRACEWID
 40
0.05
  9
$TEXTSTYLE
  7
STANDARD
  9
$CLAYER
  8
CSLAYER1
  9
$CELTYPE
  6
BYLAYER
  9
$CECOLOR
 62
   256
  9
$DIMSCALE
 40
1.0
  9
$DIMASZ
 40
0.18
  9
$DIMEXO
 40
0.0625
  9
$DIMDLI
 40
0.38
  9
$DIMRND
 40
0.0
  9
$DIMDLE
 40
0.0
  9
$DIMEXE
 40
0.18
  9
$DIMTP
 40
0.0
  9
$DIMTM
 40
0.0
  9
$DIMTXT
 40
0.18
  9
$DIMCEN
 40
0.09
  9
$DIMTSZ
 40
0.0
  9
$DIMTOL
 70
     0
  9
$DIMLIM
 70
     0
  9
$DIMTIH
 70
     1
  9
$DIMTOH
 70
     1
  9
$DIMSE1
 70
     0
  9
$DIMSE2
 70
     0
  9
$DIMTAD
 70
     0
  9
$DIMZIN
 70
     0
  9
$DIMBLK
  1

  9
$LUNITS
 70
     2
  9
$LUPREC
 70
     4
  9
$AXISMODE
 70
     0
  9
$AXISUNIT
 10
0.0
 20
0.0
  9
$SKETCHINC
 40
0.1
  9
$FILLETRAD
 40
0.0
  9
$AUNITS
 70
     0
  9
$AUPREC
 70
     0
  9
$MENU
  1
ACAD
  9
$ELEVATION
 40
0.0
  9
$THICKNESS
 40
0.0
  9
$VIEWDIR
 10
0.0
 20
0.0
 30
1.0
  9
$LIMCHECK
 70
     0
  9
$BLIPMODE
 70
     1
  9
$CHAMFERA
 40
0.0
  9
$CHAMFERB
 40
0.0
  9
$FASTZOOM
 70
     1
  9
$SKPOLY
 70
     0
  9
$TDCREATE
 40
2454214.000000
  9
$TDUPDATE
 40
2454237.000000
  9
$TDINDWG
 40
0.0
  9
$TDUSRTIMER
 40
0.0
  9
$USRTIMER
 70
     1
  9
$ANGBASE
 50
0.0
  9
$ANGDIR
 70
     0
  9
$PDMODE
 70
     0
  9
$PDSIZE
 40
0.0
  9
$PLINEWID
 40
0.0
  9
$COORDS
 70
     0
  9
$USERI1
 70
     0
  9
$USERI2
 70
     0
  9
$USERI3
 70
     0
  9
$USERI4
 70
     0
  9
$USERI5
 70
     0
  9
$USERR1
 40
0.0
  9
$USERR2
 40
0.0
  9
$USERR3
 40
0.0
  9
$USERR4
 40
0.0
  9
$USERR5
 40
0.0
  0
ENDSEC
  0
SECTION
  2
TABLES
  0
TABLE
  2
LTYPE
 70
     9
  0
LTYPE
  2
CONTINUOUS
 70
    64
  3
Solid line
 72
    65
 73
     0
 40
0.0
  0
LTYPE
  2
DASHED
 70
    64
  3
__ __ __ __ __ __ __ __ __ __ __ __ __ __ __
 72
    65
 73
     2
 40
0.75
 49
0.5
 49
-0.25
  0
LTYPE
  2
HIDDEN
 70
    64
  3
_ _ _ _ _ _ _ _ _ _ _ _ _ _ _ _ _ _ _ _ _ _ _
 72
    65
 73
     2
 40
0.375
 49
0.25
 49
-0.125
  0
LTYPE
  2
DOT
 70
    64
  3
...............................................
 72
    65
 73
     2
 40
0.25
 49
0.0
 49
-0.25
  0
LTYPE
  2
DASHDOT
 70
    64
  3
__ . __ . __ . __ . __ . __ . __ . __ . __ . __
 72
    65
 73
     4
 40
1.0
 49
0.5
 49
-0.25
 49
0.0
 49
-0.25
  0
LTYPE
  2
DIVIDE
 70
    64
  3
__ . . __ . . __ . . __ . . __ . . __ . . __
 72
    65
 73
     6
 40
1.25
 49
0.5
 49
-0.25
 49
0.0
 49
-0.25
 49
0.0
 49
-0.25
  0
LTYPE
  2
CENTER
 70
    64
  3
____ _ ____ _ ____ _ ____ _ ____ _ ____ _ ____ 
 72
    65
 73
     4
 40
2.0
 49
1.25
 49
-0.25
 49
0.25
 49
-0.25
  0
LTYPE
  2
PHANTOM
 70
    64
  3
______  __  __  ______  __  __  ______  __  __ 
 72
    65
 73
     6
 40
2.5
 49
1.25
 49
-0.25
 49
0.25
 49
-0.25
 49
0.25
 49
-0.25
  0
LTYPE
  2
BORDER
 70
    64
  3
__ __ . __ __ . __ __ . __ __ . __ __ . __ __ .
 72
    65
 73
     6
 40
1.75
 49
0.5
 49
-0.25
 49
0.5
 49
-0.25
 49
0.0
 49
-0.25
  0
ENDTAB
  0
TABLE
  2
LAYER
 70
    16
  0
LAYER
  2
CSLAYER1
 70
    64
 62
     7
  6
CONTINUOUS
  0
LAYER
  2
CSLAYER2
 70
    64
 62
     7
  6
CONTINUOUS
  0
LAYER
  2
CSLAYER3
 70
    64
 62
     7
  6
CONTINUOUS
  0
LAYER
  2
CSLAYER4
 70
    64
 62
     7
  6
CONTINUOUS
  0
LAYER
  2
CSLAYER5
 70
    64
 62
     7
  6
CONTINUOUS
  0
LAYER
  2
CSLAYER6
 70
    64
 62
     7
  6
CONTINUOUS
  0
LAYER
  2
CSLAYER7
 70
    64
 62
     7
  6
CONTINUOUS
  0
LAYER
  2
CSLAYER8
 70
    64
 62
     7
  6
CONTINUOUS
  0
LAYER
  2
CSLAYER9
 70
    64
 62
     7
  6
CONTINUOUS
  0
LAYER
  2
CSLAYER10
 70
    64
 62
     7
  6
CONTINUOUS
  0
LAYER
  2
CSLAYER11
 70
    64
 62
     7
  6
CONTINUOUS
  0
LAYER
  2
CSLAYER12
 70
    64
 62
     7
  6
CONTINUOUS
  0
LAYER
  2
CSLAYER13
 70
    64
 62
     7
  6
CONTINUOUS
  0
LAYER
  2
CSLAYER14
 70
    64
 62
     7
  6
CONTINUOUS
  0
LAYER
  2
CSLAYER15
 70
    64
 62
     7
  6
CONTINUOUS
  0
LAYER
  2
CSLAYER16
 70
    64
 62
     7
  6
CONTINUOUS
  0
ENDTAB
  0
TABLE
  2
STYLE
 70
     1
  0
STYLE
  2
FX_FONT
 70
     0
 40
1.0
 41
1.0
 50
0.0
 71
     0
 42
1.0
  3
monotxt
  4
bigfont
  0
ENDTAB
  0
TABLE
  2
VIEW
 70
     0
  0
ENDTAB
  0
ENDSEC
  0
SECTION
  2
BLOCKS
  0
ENDSEC
  0
SECTION
  2
ENTITIES
  0
TEXT
  8
CSLAYER1
 62
     3
 10
369.983337
 20
16.193443
 40
4.000000
 41
1.038462
  1
MS-100□05
 50
0.000000
 51
10.000000
  7
FX_FONT
 72
     5
 11
405.983337
 21
16.193443
  0
TEXT
  8
CSLAYER1
 62
     4
 10
369.983337
 20
10.193444
 40
3.500000
 41
1.071429
  1
尺度1：1
 50
0.000000
 51
10.000000
  7
FX_FONT
 72
     5
 11
387.483337
 21
10.193444
  0
TEXT
  8
CSLAYER1
 62
     3
 10
369.983337
 20
22.193445
 40
4.000000
 41
1.038462
  1
DCモータドライバ
 50
0.000000
 51
10.000000
  7
FX_FONT
 72
     5
 11
405.983337
 21
22.193445
  0
LINE
  8
CSLAYER1
  6
CONTINUOUS
 62
     7
 10
286.500000
 20
277.022327
 11
145.500000
 21
277.022327
  0
LINE
  8
CSLAYER1
  6
CONTINUOUS
 62
     7
 10
143.500000
 20
275.022327
 11
143.500000
 21
237.022327
  0
LINE
  8
CSLAYER1
  6
CONTINUOUS
 62
     7
 10
143.500000
 20
237.022327
 11
144.500000
 21
237.022327
  0
LINE
  8
CSLAYER1
  6
CONTINUOUS
 62
     7
 10
259.500000
 20
276.022327
 11
259.500000
 21
277.022327
  0
LINE
  8
CSLAYER1
  6
CONTINUOUS
 62
     7
 10
257.500000
 20
276.022327
 11
257.500000
 21
277.022327
  0
LINE
  8
CSLAYER1
  6
CONTINUOUS
 62
     7
 10
245.500000
 20
276.022327
 11
245.500000
 21
277.022327
  0
LINE
  8
CSLAYER1
  6
CONTINUOUS
 62
     7
 10
247.500000
 20
276.022327
 11
247.500000
 21
277.022327
  0
LINE
  8
CSLAYER1
  6
CONTINUOUS
 62
     7
 10
179.500000
 20
276.022327
 11
179.500000
 21
277.022327
  0
LINE
  8
CSLAYER1
  6
CONTINUOUS
 62
     7
 10
177.500000
 20
276.022327
 11
177.500000
 21
277.022327
  0
LINE
  8
CSLAYER1
  6
CONTINUOUS
 62
     7
 10
165.500000
 20
276.022327
 11
165.500000
 21
277.022327
  0
LINE
  8
CSLAYER1
  6
CONTINUOUS
 62
     7
 10
167.500000
 20
276.022327
 11
167.500000
 21
277.022327
  0
LINE
  8
CSLAYER1
  6
CONTINUOUS
 62
     7
 10
286.500000
 20
275.022327
 11
286.500000
 21
277.022327
  0
LINE
  8
CSLAYER1
  6
CONTINUOUS
 62
     6
 10
145.500000
 20
95.022327
 11
145.500000
 21
94.022327
  0
LINE
  8
CSLAYER1
  6
CONTINUOUS
 62
     6
 10
144.500000
 20
96.022327
 11
143.500000
 21
96.022327
  0
LINE
  8
CSLAYER1
  6
CONTINUOUS
 62
     6
 10
286.500000
 20
94.022327
 11
145.500000
 21
94.022327
  0
LINE
  8
CSLAYER1
  6
CONTINUOUS
 62
     6
 10
143.500000
 20
96.022327
 11
143.500000
 21
214.022327
  0
CIRCLE
  8
CSLAYER1
  6
DOT
 62
     3
 10
162.500000
 20
209.022327
 40
2.000000
  0
CIRCLE
  8
CSLAYER1
  6
DOT
 62
     3
 10
162.500000
 20
209.022327
 40
1.600000
  0
LINE
  8
CSLAYER1
  6
DOT
 62
     3
 10
152.500000
 20
207.522327
 11
152.500000
 21
200.522327
  0
LINE
  8
CSLAYER1
  6
DOT
 62
     3
 10
156.000000
 20
204.022327
 11
149.000000
 21
204.022327
  0
CIRCLE
  8
CSLAYER1
  6
DOT
 62
     3
 10
152.500000
 20
204.022327
 40
1.500000
  0
CIRCLE
  8
CSLAYER1
  6
DOT
 62
     3
 10
267.500000
 20
209.022327
 40
2.000000
  0
CIRCLE
  8
CSLAYER1
  6
DOT
 62
     3
 10
267.500000
 20
209.022327
 40
1.600000
  0
LINE
  8
CSLAYER1
  6
DOT
 62
     3
 10
277.500000
 20
207.522327
 11
277.500000
 21
200.522327
  0
LINE
  8
CSLAYER1
  6
DOT
 62
     3
 10
281.000000
 20
204.022327
 11
274.000000
 21
204.022327
  0
CIRCLE
  8
CSLAYER1
  6
DOT
 62
     3
 10
277.500000
 20
204.022327
 40
1.500000
  0
LINE
  8
CSLAYER1
  6
DOT
 62
     3
 10
281.000000
 20
104.022327
 11
263.000000
 21
104.022327
  0
CIRCLE
  8
CSLAYER1
  6
DOT
 62
     3
 10
267.500000
 20
104.022327
 40
2.000000
  0
CIRCLE
  8
CSLAYER1
  6
DOT
 62
     3
 10
267.500000
 20
104.022327
 40
1.600000
  0
LINE
  8
CSLAYER1
  6
DOT
 62
     3
 10
277.500000
 20
107.522327
 11
277.500000
 21
100.522327
  0
CIRCLE
  8
CSLAYER1
  6
DOT
 62
     3
 10
277.500000
 20
104.022327
 40
1.500000
  0
LINE
  8
CSLAYER1
  6
DOT
 62
     3
 10
149.000000
 20
104.022327
 11
167.000000
 21
104.022327
  0
CIRCLE
  8
CSLAYER1
  6
DOT
 62
     3
 10
162.500000
 20
104.022327
 40
2.000000
  0
CIRCLE
  8
CSLAYER1
  6
DOT
 62
     3
 10
162.500000
 20
104.022327
 40
1.600000
  0
LINE
  8
CSLAYER1
  6
DOT
 62
     3
 10
152.500000
 20
107.522327
 11
152.500000
 21
100.522327
  0
CIRCLE
  8
CSLAYER1
  6
DOT
 62
     3
 10
152.500000
 20
104.022327
 40
1.500000
  0
LINE
  8
CSLAYER1
  6
DOT
 62
     3
 10
267.500000
 20
213.522327
 11
267.500000
 21
204.522327
  0
LINE
  8
CSLAYER1
  6
DOT
 62
     3
 10
272.000000
 20
209.022327
 11
263.000000
 21
209.022327
  0
LINE
  8
CSLAYER1
  6
DOT
 62
     3
 10
162.500000
 20
213.522327
 11
162.500000
 21
204.522327
  0
LINE
  8
CSLAYER1
  6
DOT
 62
     3
 10
167.000000
 20
209.022327
 11
158.000000
 21
209.022327
  0
LINE
  8
CSLAYER1
  6
DOT
 62
     3
 10
267.500000
 20
108.522327
 11
267.500000
 21
99.522327
  0
LINE
  8
CSLAYER1
  6
DOT
 62
     3
 10
162.500000
 20
108.522327
 11
162.500000
 21
99.522327
  0
LINE
  8
CSLAYER1
  6
CONTINUOUS
 62
     7
 10
165.500000
 20
95.022327
 11
165.500000
 21
94.022327
  0
LINE
  8
CSLAYER1
  6
CONTINUOUS
 62
     7
 10
167.500000
 20
95.022327
 11
167.500000
 21
94.022327
  0
LINE
  8
CSLAYER1
  6
CONTINUOUS
 62
     7
 10
179.500000
 20
95.022327
 11
179.500000
 21
94.022327
  0
LINE
  8
CSLAYER1
  6
CONTINUOUS
 62
     7
 10
177.500000
 20
95.022327
 11
177.500000
 21
94.022327
  0
LINE
  8
CSLAYER1
  6
CONTINUOUS
 62
     7
 10
245.500000
 20
95.022327
 11
245.500000
 21
94.022327
  0
LINE
  8
CSLAYER1
  6
CONTINUOUS
 62
     7
 10
247.500000
 20
95.022327
 11
247.500000
 21
94.022327
  0
LINE
  8
CSLAYER1
  6
CONTINUOUS
 62
     7
 10
259.500000
 20
95.022327
 11
259.500000
 21
94.022327
  0
LINE
  8
CSLAYER1
  6
CONTINUOUS
 62
     7
 10
257.500000
 20
95.022327
 11
257.500000
 21
94.022327
  0
LINE
  8
CSLAYER1
  6
CONTINUOUS
 62
     7
 10
286.500000
 20
95.022327
 11
286.500000
 21
94.022327
  0
LINE
  8
CSLAYER1
  6
CONTINUOUS
 62
     7
 10
143.500000
 20
214.022327
 11
144.500000
 21
214.022327
  0
LINE
  8
CSLAYER1
  6
CONTINUOUS
 62
     6
 10
288.000000
 20
28.522327
 11
288.000000
 21
67.022327
  0
LINE
  8
CSLAYER1
  6
CONTINUOUS
 62
     6
 10
286.500000
 20
28.522327
 11
286.500000
 21
68.958819
  0
LINE
  8
CSLAYER1
  6
CONTINUOUS
 62
     6
 10
144.500000
 20
67.522327
 11
144.500000
 21
69.022327
  0
LINE
  8
CSLAYER1
  6
CONTINUOUS
 62
     6
 10
144.500000
 20
69.022327
 11
286.000000
 21
69.022327
  0
ARC
  8
CSLAYER1
  6
CONTINUOUS
 62
     6
 10
286.000000
 20
67.022327
 40
2.000000
 50
0.000000
 51
90.000000
  0
LINE
  8
CSLAYER1
  6
CONTINUOUS
 62
     7
 10
144.500000
 20
67.522327
 11
288.000000
 21
67.522327
  0
LINE
  8
CSLAYER1
  6
CONTINUOUS
 62
     7
 10
286.500000
 20
28.522327
 11
288.000000
 21
28.522327
  0
LINE
  8
CSLAYER1
  6
CONTINUOUS
 62
     6
 10
319.500000
 20
95.022327
 11
319.500000
 21
94.022327
  0
LINE
  8
CSLAYER1
  6
CONTINUOUS
 62
     6
 10
359.500000
 20
214.022327
 11
359.500000
 21
96.022327
  0
LINE
  8
CSLAYER1
  6
CONTINUOUS
 62
     6
 10
357.500000
 20
94.022327
 11
319.500000
 21
94.022327
  0
ARC
  8
CSLAYER1
  6
CONTINUOUS
 62
     7
 10
357.500000
 20
96.022327
 40
2.000000
 50
270.000000
 51
360.000000
  0
LINE
  8
CSLAYER1
  6
CONTINUOUS
 62
     7
 10
332.500000
 20
95.022327
 11
332.500000
 21
94.022327
  0
LINE
  8
CSLAYER1
  6
CONTINUOUS
 62
     7
 10
334.500000
 20
95.022327
 11
334.500000
 21
94.022327
  0
LINE
  8
CSLAYER1
  6
CONTINUOUS
 62
     7
 10
346.500000
 20
95.022327
 11
346.500000
 21
94.022327
  0
LINE
  8
CSLAYER1
  6
CONTINUOUS
 62
     7
 10
344.500000
 20
95.022327
 11
344.500000
 21
94.022327
  0
TEXT
  8
CSLAYER1
 62
     3
 10
65.000000
 20
196.272324
 40
3.500000
 41
0.900000
  1
PS+
 50
0.000000
 51
0.000000
  7
FX_FONT
 72
     5
 11
73.400000
 21
196.272324
  0
TEXT
  8
CSLAYER1
 62
     3
 10
65.000000
 20
188.772324
 40
3.500000
 41
0.900000
  1
PS-
 50
0.000000
 51
0.000000
  7
FX_FONT
 72
     5
 11
73.400000
 21
188.772324
  0
TEXT
  8
CSLAYER1
 62
     3
 10
65.000000
 20
181.272324
 40
3.500000
 41
0.960000
  1
FG
 50
0.000000
 51
0.000000
  7
FX_FONT
 72
     5
 11
70.600000
 21
181.272324
  0
TEXT
  8
CSLAYER1
 62
     3
 10
65.000000
 20
173.772324
 40
3.500000
 41
0.960000
  1
M+
 50
0.000000
 51
0.000000
  7
FX_FONT
 72
     5
 11
70.600000
 21
173.772324
  0
TEXT
  8
CSLAYER1
 62
     3
 10
65.000000
 20
166.272324
 40
3.500000
 41
0.960000
  1
M-
 50
0.000000
 51
0.000000
  7
FX_FONT
 72
     5
 11
70.600000
 21
166.272324
  0
TEXT
  8
CSLAYER1
 62
     3
 10
76.500000
 20
210.522324
 40
3.000000
 41
0.695652
  1
DC MOTOR
 50
0.000000
 51
0.000000
  7
FX_FONT
 72
     5
 11
92.500000
 21
210.522324
  0
TEXT
  8
CSLAYER1
 62
     3
 10
78.500000
 20
207.522324
 40
3.000000
 41
0.705882
  1
DRIVER
 50
0.000000
 51
0.000000
  7
FX_FONT
 72
     5
 11
90.500000
 21
207.522324
  0
TEXT
  8
CSLAYER1
 62
     3
 10
75.500000
 20
204.522324
 40
3.000000
 41
0.692308
  1
MS-100 05
 50
0.000000
 51
0.000000
  7
FX_FONT
 72
     5
 11
93.500000
 21
204.522324
  0
TEXT
  8
CSLAYER1
 62
     3
 10
75.301147
 20
102.861877
 40
3.500000
 41
0.834783
  1
SAWAMURA
 50
0.000000
 51
0.000000
  7
FX_FONT
 72
     5
 11
97.701147
 21
102.861877
  0
TEXT
  8
CSLAYER1
 62
     3
 10
75.301147
 20
98.681885
 40
3.500000
 41
0.857143
  1
DENKI
 50
0.000000
 51
0.000000
  7
FX_FONT
 72
     5
 11
89.301147
 21
98.681885
  0
LINE
  8
CSLAYER1
  6
DASHED
 62
     3
 10
64.000000
 20
214.022327
 11
64.000000
 21
96.022327
  0
LINE
  8
CSLAYER1
  6
CONTINUOUS
 62
     6
 10
101.000000
 20
214.022327
 11
62.000000
 21
214.022327
  0
LINE
  8
CSLAYER1
  6
CONTINUOUS
 62
     6
 10
102.000000
 20
213.022327
 11
102.000000
 21
94.022327
  0
LINE
  8
CSLAYER1
  6
CONTINUOUS
 62
     6
 10
62.000000
 20
96.022327
 11
102.000000
 21
96.022327
  0
LINE
  8
CSLAYER1
  6
CONTINUOUS
 62
     6
 10
62.000000
 20
214.022327
 11
62.000000
 21
96.022327
  0
LINE
  8
CSLAYER1
  6
CONTINUOUS
 62
     6
 10
64.000000
 20
94.022327
 11
102.000000
 21
94.022327
  0
LINE
  8
CSLAYER1
  6
CONTINUOUS
 62
     6
 10
102.000000
 20
213.022327
 11
101.000000
 21
214.022327
  0
TEXT
  8
CSLAYER1
 62
     3
 10
65.000000
 20
155.272324
 40
3.500000
 41
0.900000
  1
TG+
 50
0.000000
 51
0.000000
  7
FX_FONT
 72
     5
 11
73.400000
 21
155.272324
  0
TEXT
  8
CSLAYER1
 62
     3
 10
65.000000
 20
150.272324
 40
3.500000
 41
0.900000
  1
TG-
 50
0.000000
 51
0.000000
  7
FX_FONT
 72
     5
 11
73.400000
 21
150.272324
  0
TEXT
  8
CSLAYER1
 62
     3
 10
65.000000
 20
145.272324
 40
3.500000
 41
0.900000
  1
VR1
 50
0.000000
 51
0.000000
  7
FX_FONT
 72
     5
 11
73.400000
 21
145.272324
  0
TEXT
  8
CSLAYER1
 62
     3
 10
65.000000
 20
140.272324
 40
3.500000
 41
0.900000
  1
VR2
 50
0.000000
 51
0.000000
  7
FX_FONT
 72
     5
 11
73.400000
 21
140.272324
  0
TEXT
  8
CSLAYER1
 62
     3
 10
65.000000
 20
135.272324
 40
3.500000
 41
0.900000
  1
VR3
 50
0.000000
 51
0.000000
  7
FX_FONT
 72
     5
 11
73.400000
 21
135.272324
  0
TEXT
  8
CSLAYER1
 62
     3
 10
65.000000
 20
130.272324
 40
3.500000
 41
0.900000
  1
COM
 50
0.000000
 51
0.000000
  7
FX_FONT
 72
     5
 11
73.400000
 21
130.272324
  0
TEXT
  8
CSLAYER1
 62
     3
 10
65.000000
 20
125.272324
 40
3.500000
 41
0.900000
  1
CWP
 50
0.000000
 51
0.000000
  7
FX_FONT
 72
     5
 11
73.400000
 21
125.272324
  0
TEXT
  8
CSLAYER1
 62
     3
 10
65.000000
 20
120.272324
 40
3.500000
 41
0.900000
  1
CCP
 50
0.000000
 51
0.000000
  7
FX_FONT
 72
     5
 11
73.400000
 21
120.272324
  0
TEXT
  8
CSLAYER1
 62
     3
 10
65.000000
 20
115.272324
 40
3.500000
 41
0.900000
  1
INH
 50
0.000000
 51
0.000000
  7
FX_FONT
 72
     5
 11
73.400000
 21
115.272324
  0
TEXT
  8
CSLAYER1
 62
     3
 10
65.000000
 20
110.272324
 40
3.500000
 41
0.900000
  1
COM
 50
0.000000
 51
0.000000
  7
FX_FONT
 72
     5
 11
73.400000
 21
110.272324
  0
LINE
  8
CSLAYER1
  6
CENTER
 62
     3
 10
97.000000
 20
213.022327
 11
97.000000
 21
205.022327
  0
LINE
  8
CSLAYER1
  6
CENTER
 62
     3
 10
72.000000
 20
213.022327
 11
72.000000
 21
205.022327
  0
LINE
  8
CSLAYER1
  6
CENTER
 62
     3
 10
101.000000
 20
209.022327
 11
93.000000
 21
209.022327
  0
LINE
  8
CSLAYER1
  6
CENTER
 62
     3
 10
101.000000
 20
99.022327
 11
93.000000
 21
99.022327
  0
LINE
  8
CSLAYER1
  6
CENTER
 62
     3
 10
76.000000
 20
209.022327
 11
68.000000
 21
209.022327
  0
LINE
  8
CSLAYER1
  6
CENTER
 62
     3
 10
97.000000
 20
102.737632
 11
97.000000
 21
95.022327
  0
LINE
  8
CSLAYER1
  6
CENTER
 62
     3
 10
72.000000
 20
103.022327
 11
72.000000
 21
95.022327
  0
LINE
  8
CSLAYER1
  6
CENTER
 62
     3
 10
74.977284
 20
99.022327
 11
67.000000
 21
99.022327
  0
LINE
  8
CSLAYER1
  6
CONTINUOUS
 62
     3
 10
70.275862
 20
104.586018
 11
71.137931
 21
104.586018
  0
LINE
  8
CSLAYER1
  6
CONTINUOUS
 62
     3
 10
71.137931
 20
104.586018
 11
71.137931
 21
105.448087
  0
LINE
  8
CSLAYER1
  6
CONTINUOUS
 62
     3
 10
71.137931
 20
105.448087
 11
73.724138
 21
104.586018
  0
LINE
  8
CSLAYER1
  6
CONTINUOUS
 62
     3
 10
73.724138
 20
104.586018
 11
72.862069
 21
104.586018
  0
LINE
  8
CSLAYER1
  6
CONTINUOUS
 62
     3
 10
72.862069
 20
104.586018
 11
72.862069
 21
103.723949
  0
LINE
  8
CSLAYER1
  6
CONTINUOUS
 62
     3
 10
72.862069
 20
103.723949
 11
70.275862
 21
104.586018
  0
CIRCLE
  8
CSLAYER1
  6
CONTINUOUS
 62
     3
 10
72.000000
 20
104.586018
 40
1.724138
  0
CIRCLE
  8
CSLAYER1
  6
CONTINUOUS
 62
     3
 10
72.000000
 20
104.586018
 40
2.000000
  0
CIRCLE
  8
CSLAYER1
  6
CONTINUOUS
 62
     3
 10
97.000000
 20
99.022327
 40
2.000000
  0
CIRCLE
  8
CSLAYER1
  6
CONTINUOUS
 62
     6
 10
97.000000
 20
99.022327
 40
1.600000
  0
CIRCLE
  8
CSLAYER1
  6
CONTINUOUS
 62
     3
 10
72.000000
 20
99.022327
 40
2.000000
  0
CIRCLE
  8
CSLAYER1
  6
CONTINUOUS
 62
     6
 10
72.000000
 20
99.022327
 40
1.600000
  0
CIRCLE
  8
CSLAYER1
  6
CONTINUOUS
 62
     3
 10
97.000000
 20
209.022327
 40
2.000000
  0
CIRCLE
  8
CSLAYER1
  6
CONTINUOUS
 62
     6
 10
97.000000
 20
209.022327
 40
1.600000
  0
CIRCLE
  8
CSLAYER1
  6
CONTINUOUS
 62
     3
 10
72.000000
 20
209.022327
 40
2.000000
  0
CIRCLE
  8
CSLAYER1
  6
CONTINUOUS
 62
     6
 10
72.000000
 20
209.022327
 40
1.600000
  0
ARC
  8
CSLAYER1
  6
CONTINUOUS
 62
     7
 10
64.000000
 20
96.022327
 40
2.000000
 50
180.000000
 51
270.000000
  0
LINE
  8
CSLAYER1
  6
CONTINUOUS
 62
     6
 10
131.500000
 20
109.522327
 11
131.500000
 21
159.522327
  0
LINE
  8
CSLAYER1
  6
CONTINUOUS
 62
     6
 10
131.500000
 20
159.522327
 11
143.500000
 21
159.522327
  0
LINE
  8
CSLAYER1
  6
CONTINUOUS
 62
     6
 10
131.500000
 20
109.522327
 11
143.500000
 21
109.522327
  0
LINE
  8
CSLAYER1
  6
CONTINUOUS
 62
     3
 10
131.500000
 20
154.522327
 11
143.500000
 21
154.522327
  0
LINE
  8
CSLAYER1
  6
CONTINUOUS
 62
     3
 10
131.500000
 20
149.522327
 11
143.500000
 21
149.522327
  0
LINE
  8
CSLAYER1
  6
CONTINUOUS
 62
     3
 10
131.500000
 20
144.522327
 11
143.500000
 21
144.522327
  0
LINE
  8
CSLAYER1
  6
CONTINUOUS
 62
     3
 10
131.500000
 20
129.522327
 11
143.500000
 21
129.522327
  0
LINE
  8
CSLAYER1
  6
CONTINUOUS
 62
     3
 10
131.500000
 20
134.522327
 11
143.500000
 21
134.522327
  0
LINE
  8
CSLAYER1
  6
CONTINUOUS
 62
     3
 10
131.500000
 20
139.522327
 11
143.500000
 21
139.522327
  0
LINE
  8
CSLAYER1
  6
CONTINUOUS
 62
     3
 10
131.500000
 20
124.522327
 11
143.500000
 21
124.522327
  0
LINE
  8
CSLAYER1
  6
CONTINUOUS
 62
     3
 10
131.500000
 20
119.522327
 11
143.500000
 21
119.522327
  0
LINE
  8
CSLAYER1
  6
CONTINUOUS
 62
     3
 10
131.500000
 20
114.522327
 11
143.500000
 21
114.522327
  0
LINE
  8
CSLAYER1
  6
PHANTOM
 62
     3
 10
133.896927
 20
161.022327
 11
133.896927
 21
204.022327
  0
LINE
  8
CSLAYER1
  6
PHANTOM
 62
     3
 10
135.164533
 20
161.022327
 11
135.164533
 21
204.022327
  0
LINE
  8
CSLAYER1
  6
PHANTOM
 62
     3
 10
135.164533
 20
204.022327
 11
133.896927
 21
204.022327
  0
LINE
  8
CSLAYER1
  6
PHANTOM
 62
     3
 10
135.164533
 20
161.022327
 11
133.896927
 21
161.022327
  0
LINE
  8
CSLAYER1
  6
CONTINUOUS
 62
     6
 10
134.530730
 20
204.022327
 11
143.500000
 21
204.022327
  0
LINE
  8
CSLAYER1
  6
CONTINUOUS
 62
     6
 10
134.530730
 20
161.022327
 11
134.530730
 21
204.022327
  0
LINE
  8
CSLAYER1
  6
CONTINUOUS
 62
     3
 10
139.601152
 20
203.022327
 11
139.601152
 21
195.622327
  0
LINE
  8
CSLAYER1
  6
CONTINUOUS
 62
     3
 10
138.967350
 20
203.022327
 11
138.967350
 21
195.622327
  0
LINE
  8
CSLAYER1
  6
CONTINUOUS
 62
     6
 10
143.500000
 20
203.022327
 11
134.530730
 21
203.022327
  0
LINE
  8
CSLAYER1
  6
CONTINUOUS
 62
     6
 10
143.500000
 20
195.622327
 11
134.530730
 21
195.622327
  0
LINE
  8
CSLAYER1
  6
CONTINUOUS
 62
     6
 10
143.500000
 20
194.622327
 11
134.530730
 21
194.622327
  0
ARC
  8
CSLAYER1
  6
CONTINUOUS
 62
     6
 10
143.044968
 20
199.322313
 40
6.637945
 50
163.742984
 51
196.257006
  0
LINE
  8
CSLAYER1
  6
CONTINUOUS
 62
     6
 10
138.097358
 20
196.732592
 11
137.500112
 21
196.784842
  0
ARC
  8
CSLAYER1
  6
CONTINUOUS
 62
     6
 10
137.582762
 20
197.729517
 40
0.948278
 50
196.257389
 51
264.999889
  0
LINE
  8
CSLAYER1
  6
CONTINUOUS
 62
     6
 10
138.097358
 20
201.912033
 11
137.500112
 21
201.859783
  0
ARC
  8
CSLAYER1
  6
CONTINUOUS
 62
     6
 10
137.582762
 20
200.915109
 40
0.948278
 50
95.000108
 51
163.742601
  0
LINE
  8
CSLAYER1
  6
CONTINUOUS
 62
     3
 10
138.303578
 20
196.667175
 11
138.303578
 21
201.977508
  0
ARC
  8
CSLAYER1
  6
CONTINUOUS
 62
     6
 10
138.113911
 20
201.723133
 40
0.189656
 50
0.000000
 51
95.000152
  0
LINE
  8
CSLAYER1
  6
CONTINUOUS
 62
     3
 10
138.398383
 20
202.072341
 11
138.872522
 21
202.072341
  0
ARC
  8
CSLAYER1
  6
CONTINUOUS
 62
     3
 10
138.398383
 20
201.977508
 40
0.094828
 50
90.000003
 51
180.000005
  0
ARC
  8
CSLAYER1
  6
CONTINUOUS
 62
     3
 10
138.872522
 20
201.977508
 40
0.094828
 50
0.000000
 51
90.000003
  0
ARC
  8
CSLAYER1
  6
CONTINUOUS
 62
     6
 10
138.113911
 20
196.921550
 40
0.189656
 50
264.999865
 51
359.942691
  0
ARC
  8
CSLAYER1
  6
CONTINUOUS
 62
     3
 10
138.398383
 20
196.667175
 40
0.094828
 50
180.000005
 51
270.000001
  0
LINE
  8
CSLAYER1
  6
CONTINUOUS
 62
     3
 10
138.398383
 20
196.572341
 11
138.872522
 21
196.572341
  0
ARC
  8
CSLAYER1
  6
CONTINUOUS
 62
     3
 10
138.872522
 20
196.667175
 40
0.094828
 50
270.000001
 51
359.942691
  0
LINE
  8
CSLAYER1
  6
CONTINUOUS
 62
     3
 10
138.303578
 20
198.757232
 11
138.967355
 21
199.178138
  0
LINE
  8
CSLAYER1
  6
CONTINUOUS
 62
     3
 10
138.303578
 20
199.231371
 11
138.967355
 21
199.652277
  0
LINE
  8
CSLAYER1
  6
CONTINUOUS
 62
     3
 10
141.000000
 20
159.522327
 11
141.000000
 21
109.522327
  0
LINE
  8
CSLAYER1
  6
CONTINUOUS
 62
     3
 10
136.669873
 20
109.522327
 11
136.669873
 21
159.522327
  0
ARC
  8
CSLAYER1
  6
CONTINUOUS
 62
     3
 10
135.011111
 20
157.022327
 40
1.805556
 50
109.000802
 51
250.999198
  0
LINE
  8
CSLAYER1
  6
CONTINUOUS
 62
     3
 10
134.976666
 20
158.213961
 11
133.622438
 21
155.868370
  0
POLYLINE
  8
CSLAYER1
  6
CONTINUOUS
 62
     7
 66
     1
 10
0.0
 20
0.0
 30
0.0
  0
VERTEX
  8
CSLAYER1
  6
CONTINUOUS
 62
     7
 10
134.000000
 20
158.827883
 30
0.0
  0
VERTEX
  8
CSLAYER1
  6
CONTINUOUS
 62
     7
 10
133.886698
 20
158.821012
 30
0.0
  0
VERTEX
  8
CSLAYER1
  6
CONTINUOUS
 62
     7
 10
133.774257
 20
158.800452
 30
0.0
  0
VERTEX
  8
CSLAYER1
  6
CONTINUOUS
 62
     7
 10
133.663535
 20
158.766360
 30
0.0
  0
VERTEX
  8
CSLAYER1
  6
CONTINUOUS
 62
     7
 10
133.555374
 20
158.718994
 30
0.0
  0
VERTEX
  8
CSLAYER1
  6
CONTINUOUS
 62
     7
 10
133.450596
 20
158.658716
 30
0.0
  0
VERTEX
  8
CSLAYER1
  6
CONTINUOUS
 62
     7
 10
133.350000
 20
158.585984
 30
0.0
  0
VERTEX
  8
CSLAYER1
  6
CONTINUOUS
 62
     7
 10
133.254351
 20
158.501352
 30
0.0
  0
VERTEX
  8
CSLAYER1
  6
CONTINUOUS
 62
     7
 10
133.164376
 20
158.405463
 30
0.0
  0
VERTEX
  8
CSLAYER1
  6
CONTINUOUS
 62
     7
 10
133.080761
 20
158.299048
 30
0.0
  0
VERTEX
  8
CSLAYER1
  6
CONTINUOUS
 62
     7
 10
133.004142
 20
158.182916
 30
0.0
  0
VERTEX
  8
CSLAYER1
  6
CONTINUOUS
 62
     7
 10
132.935102
 20
158.057951
 30
0.0
  0
VERTEX
  8
CSLAYER1
  6
CONTINUOUS
 62
     7
 10
132.874167
 20
157.925105
 30
0.0
  0
VERTEX
  8
CSLAYER1
  6
CONTINUOUS
 62
     7
 10
132.821800
 20
157.785388
 30
0.0
  0
VERTEX
  8
CSLAYER1
  6
CONTINUOUS
 62
     7
 10
132.778400
 20
157.639863
 30
0.0
  0
VERTEX
  8
CSLAYER1
  6
CONTINUOUS
 62
     7
 10
132.744296
 20
157.489639
 30
0.0
  0
VERTEX
  8
CSLAYER1
  6
CONTINUOUS
 62
     7
 10
132.719750
 20
157.335858
 30
0.0
  0
VERTEX
  8
CSLAYER1
  6
CONTINUOUS
 62
     7
 10
132.704947
 20
157.179692
 30
0.0
  0
VERTEX
  8
CSLAYER1
  6
CONTINUOUS
 62
     7
 10
132.700000
 20
157.022327
 30
0.0
  0
VERTEX
  8
CSLAYER1
  6
CONTINUOUS
 62
     7
 10
132.704947
 20
156.864962
 30
0.0
  0
VERTEX
  8
CSLAYER1
  6
CONTINUOUS
 62
     7
 10
132.719750
 20
156.708796
 30
0.0
  0
VERTEX
  8
CSLAYER1
  6
CONTINUOUS
 62
     7
 10
132.744296
 20
156.555015
 30
0.0
  0
VERTEX
  8
CSLAYER1
  6
CONTINUOUS
 62
     7
 10
132.778400
 20
156.404791
 30
0.0
  0
VERTEX
  8
CSLAYER1
  6
CONTINUOUS
 62
     7
 10
132.821800
 20
156.259266
 30
0.0
  0
VERTEX
  8
CSLAYER1
  6
CONTINUOUS
 62
     7
 10
132.874167
 20
156.119549
 30
0.0
  0
VERTEX
  8
CSLAYER1
  6
CONTINUOUS
 62
     7
 10
132.935102
 20
155.986703
 30
0.0
  0
VERTEX
  8
CSLAYER1
  6
CONTINUOUS
 62
     7
 10
133.004142
 20
155.861738
 30
0.0
  0
VERTEX
  8
CSLAYER1
  6
CONTINUOUS
 62
     7
 10
133.080761
 20
155.745606
 30
0.0
  0
VERTEX
  8
CSLAYER1
  6
CONTINUOUS
 62
     7
 10
133.164376
 20
155.639191
 30
0.0
  0
VERTEX
  8
CSLAYER1
  6
CONTINUOUS
 62
     7
 10
133.254351
 20
155.543302
 30
0.0
  0
VERTEX
  8
CSLAYER1
  6
CONTINUOUS
 62
     7
 10
133.350000
 20
155.458670
 30
0.0
  0
VERTEX
  8
CSLAYER1
  6
CONTINUOUS
 62
     7
 10
133.450596
 20
155.385938
 30
0.0
  0
VERTEX
  8
CSLAYER1
  6
CONTINUOUS
 62
     7
 10
133.555374
 20
155.325660
 30
0.0
  0
VERTEX
  8
CSLAYER1
  6
CONTINUOUS
 62
     7
 10
133.663535
 20
155.278294
 30
0.0
  0
VERTEX
  8
CSLAYER1
  6
CONTINUOUS
 62
     7
 10
133.774257
 20
155.244202
 30
0.0
  0
VERTEX
  8
CSLAYER1
  6
CONTINUOUS
 62
     7
 10
133.886698
 20
155.223642
 30
0.0
  0
VERTEX
  8
CSLAYER1
  6
CONTINUOUS
 62
     7
 10
134.000000
 20
155.216771
 30
0.0
  0
VERTEX
  8
CSLAYER1
  6
CONTINUOUS
 62
     7
 10
134.113302
 20
155.223642
 30
0.0
  0
VERTEX
  8
CSLAYER1
  6
CONTINUOUS
 62
     7
 10
134.225743
 20
155.244202
 30
0.0
  0
VERTEX
  8
CSLAYER1
  6
CONTINUOUS
 62
     7
 10
134.336465
 20
155.278294
 30
0.0
  0
VERTEX
  8
CSLAYER1
  6
CONTINUOUS
 62
     7
 10
134.444626
 20
155.325660
 30
0.0
  0
VERTEX
  8
CSLAYER1
  6
CONTINUOUS
 62
     7
 10
134.549404
 20
155.385938
 30
0.0
  0
VERTEX
  8
CSLAYER1
  6
CONTINUOUS
 62
     7
 10
134.650000
 20
155.458670
 30
0.0
  0
VERTEX
  8
CSLAYER1
  6
CONTINUOUS
 62
     7
 10
134.745649
 20
155.543302
 30
0.0
  0
VERTEX
  8
CSLAYER1
  6
CONTINUOUS
 62
     7
 10
134.835624
 20
155.639191
 30
0.0
  0
VERTEX
  8
CSLAYER1
  6
CONTINUOUS
 62
     7
 10
134.919239
 20
155.745606
 30
0.0
  0
VERTEX
  8
CSLAYER1
  6
CONTINUOUS
 62
     7
 10
134.995858
 20
155.861738
 30
0.0
  0
VERTEX
  8
CSLAYER1
  6
CONTINUOUS
 62
     7
 10
135.064898
 20
155.986703
 30
0.0
  0
VERTEX
  8
CSLAYER1
  6
CONTINUOUS
 62
     7
 10
135.125833
 20
156.119549
 30
0.0
  0
VERTEX
  8
CSLAYER1
  6
CONTINUOUS
 62
     7
 10
135.178200
 20
156.259266
 30
0.0
  0
VERTEX
  8
CSLAYER1
  6
CONTINUOUS
 62
     7
 10
135.221600
 20
156.404791
 30
0.0
  0
VERTEX
  8
CSLAYER1
  6
CONTINUOUS
 62
     7
 10
135.255704
 20
156.555015
 30
0.0
  0
VERTEX
  8
CSLAYER1
  6
CONTINUOUS
 62
     7
 10
135.280250
 20
156.708796
 30
0.0
  0
VERTEX
  8
CSLAYER1
  6
CONTINUOUS
 62
     7
 10
135.295053
 20
156.864962
 30
0.0
  0
VERTEX
  8
CSLAYER1
  6
CONTINUOUS
 62
     7
 10
135.300000
 20
157.022327
 30
0.0
  0
VERTEX
  8
CSLAYER1
  6
CONTINUOUS
 62
     7
 10
135.295053
 20
157.179692
 30
0.0
  0
VERTEX
  8
CSLAYER1
  6
CONTINUOUS
 62
     7
 10
135.280250
 20
157.335858
 30
0.0
  0
VERTEX
  8
CSLAYER1
  6
CONTINUOUS
 62
     7
 10
135.255704
 20
157.489639
 30
0.0
  0
VERTEX
  8
CSLAYER1
  6
CONTINUOUS
 62
     7
 10
135.221600
 20
157.639863
 30
0.0
  0
VERTEX
  8
CSLAYER1
  6
CONTINUOUS
 62
     7
 10
135.178200
 20
157.785388
 30
0.0
  0
VERTEX
  8
CSLAYER1
  6
CONTINUOUS
 62
     7
 10
135.125833
 20
157.925105
 30
0.0
  0
VERTEX
  8
CSLAYER1
  6
CONTINUOUS
 62
     7
 10
135.064898
 20
158.057951
 30
0.0
  0
VERTEX
  8
CSLAYER1
  6
CONTINUOUS
 62
     7
 10
134.995858
 20
158.182916
 30
0.0
  0
VERTEX
  8
CSLAYER1
  6
CONTINUOUS
 62
     7
 10
134.919239
 20
158.299048
 30
0.0
  0
VERTEX
  8
CSLAYER1
  6
CONTINUOUS
 62
     7
 10
134.835624
 20
158.405463
 30
0.0
  0
VERTEX
  8
CSLAYER1
  6
CONTINUOUS
 62
     7
 10
134.745649
 20
158.501352
 30
0.0
  0
VERTEX
  8
CSLAYER1
  6
CONTINUOUS
 62
     7
 10
134.650000
 20
158.585984
 30
0.0
  0
VERTEX
  8
CSLAYER1
  6
CONTINUOUS
 62
     7
 10
134.549404
 20
158.658716
 30
0.0
  0
VERTEX
  8
CSLAYER1
  6
CONTINUOUS
 62
     7
 10
134.444626
 20
158.718994
 30
0.0
  0
VERTEX
  8
CSLAYER1
  6
CONTINUOUS
 62
     7
 10
134.336465
 20
158.766360
 30
0.0
  0
VERTEX
  8
CSLAYER1
  6
CONTINUOUS
 62
     7
 10
134.225743
 20
158.800452
 30
0.0
  0
VERTEX
  8
CSLAYER1
  6
CONTINUOUS
 62
     7
 10
134.113302
 20
158.821012
 30
0.0
  0
VERTEX
  8
CSLAYER1
  6
CONTINUOUS
 62
     7
 10
134.000000
 20
158.827883
 30
0.0
  0
SEQEND
  0
ARC
  8
CSLAYER1
  6
CONTINUOUS
 62
     3
 10
135.011111
 20
152.022327
 40
1.805556
 50
109.000802
 51
250.999198
  0
POLYLINE
  8
CSLAYER1
  6
CONTINUOUS
 62
     7
 66
     1
 10
0.0
 20
0.0
 30
0.0
  0
VERTEX
  8
CSLAYER1
  6
CONTINUOUS
 62
     7
 10
134.000000
 20
153.827883
 30
0.0
  0
VERTEX
  8
CSLAYER1
  6
CONTINUOUS
 62
     7
 10
133.886698
 20
153.821012
 30
0.0
  0
VERTEX
  8
CSLAYER1
  6
CONTINUOUS
 62
     7
 10
133.774257
 20
153.800452
 30
0.0
  0
VERTEX
  8
CSLAYER1
  6
CONTINUOUS
 62
     7
 10
133.663535
 20
153.766360
 30
0.0
  0
VERTEX
  8
CSLAYER1
  6
CONTINUOUS
 62
     7
 10
133.555374
 20
153.718994
 30
0.0
  0
VERTEX
  8
CSLAYER1
  6
CONTINUOUS
 62
     7
 10
133.450596
 20
153.658716
 30
0.0
  0
VERTEX
  8
CSLAYER1
  6
CONTINUOUS
 62
     7
 10
133.350000
 20
153.585984
 30
0.0
  0
VERTEX
  8
CSLAYER1
  6
CONTINUOUS
 62
     7
 10
133.254351
 20
153.501352
 30
0.0
  0
VERTEX
  8
CSLAYER1
  6
CONTINUOUS
 62
     7
 10
133.164376
 20
153.405463
 30
0.0
  0
VERTEX
  8
CSLAYER1
  6
CONTINUOUS
 62
     7
 10
133.080761
 20
153.299048
 30
0.0
  0
VERTEX
  8
CSLAYER1
  6
CONTINUOUS
 62
     7
 10
133.004142
 20
153.182916
 30
0.0
  0
VERTEX
  8
CSLAYER1
  6
CONTINUOUS
 62
     7
 10
132.935102
 20
153.057951
 30
0.0
  0
VERTEX
  8
CSLAYER1
  6
CONTINUOUS
 62
     7
 10
132.874167
 20
152.925105
 30
0.0
  0
VERTEX
  8
CSLAYER1
  6
CONTINUOUS
 62
     7
 10
132.821800
 20
152.785388
 30
0.0
  0
VERTEX
  8
CSLAYER1
  6
CONTINUOUS
 62
     7
 10
132.778400
 20
152.639863
 30
0.0
  0
VERTEX
  8
CSLAYER1
  6
CONTINUOUS
 62
     7
 10
132.744296
 20
152.489639
 30
0.0
  0
VERTEX
  8
CSLAYER1
  6
CONTINUOUS
 62
     7
 10
132.719750
 20
152.335858
 30
0.0
  0
VERTEX
  8
CSLAYER1
  6
CONTINUOUS
 62
     7
 10
132.704947
 20
152.179692
 30
0.0
  0
VERTEX
  8
CSLAYER1
  6
CONTINUOUS
 62
     7
 10
132.700000
 20
152.022327
 30
0.0
  0
VERTEX
  8
CSLAYER1
  6
CONTINUOUS
 62
     7
 10
132.704947
 20
151.864962
 30
0.0
  0
VERTEX
  8
CSLAYER1
  6
CONTINUOUS
 62
     7
 10
132.719750
 20
151.708796
 30
0.0
  0
VERTEX
  8
CSLAYER1
  6
CONTINUOUS
 62
     7
 10
132.744296
 20
151.555015
 30
0.0
  0
VERTEX
  8
CSLAYER1
  6
CONTINUOUS
 62
     7
 10
132.778400
 20
151.404791
 30
0.0
  0
VERTEX
  8
CSLAYER1
  6
CONTINUOUS
 62
     7
 10
132.821800
 20
151.259266
 30
0.0
  0
VERTEX
  8
CSLAYER1
  6
CONTINUOUS
 62
     7
 10
132.874167
 20
151.119549
 30
0.0
  0
VERTEX
  8
CSLAYER1
  6
CONTINUOUS
 62
     7
 10
132.935102
 20
150.986703
 30
0.0
  0
VERTEX
  8
CSLAYER1
  6
CONTINUOUS
 62
     7
 10
133.004142
 20
150.861738
 30
0.0
  0
VERTEX
  8
CSLAYER1
  6
CONTINUOUS
 62
     7
 10
133.080761
 20
150.745606
 30
0.0
  0
VERTEX
  8
CSLAYER1
  6
CONTINUOUS
 62
     7
 10
133.164376
 20
150.639191
 30
0.0
  0
VERTEX
  8
CSLAYER1
  6
CONTINUOUS
 62
     7
 10
133.254351
 20
150.543302
 30
0.0
  0
VERTEX
  8
CSLAYER1
  6
CONTINUOUS
 62
     7
 10
133.350000
 20
150.458670
 30
0.0
  0
VERTEX
  8
CSLAYER1
  6
CONTINUOUS
 62
     7
 10
133.450596
 20
150.385938
 30
0.0
  0
VERTEX
  8
CSLAYER1
  6
CONTINUOUS
 62
     7
 10
133.555374
 20
150.325660
 30
0.0
  0
VERTEX
  8
CSLAYER1
  6
CONTINUOUS
 62
     7
 10
133.663535
 20
150.278294
 30
0.0
  0
VERTEX
  8
CSLAYER1
  6
CONTINUOUS
 62
     7
 10
133.774257
 20
150.244202
 30
0.0
  0
VERTEX
  8
CSLAYER1
  6
CONTINUOUS
 62
     7
 10
133.886698
 20
150.223642
 30
0.0
  0
VERTEX
  8
CSLAYER1
  6
CONTINUOUS
 62
     7
 10
134.000000
 20
150.216771
 30
0.0
  0
VERTEX
  8
CSLAYER1
  6
CONTINUOUS
 62
     7
 10
134.113302
 20
150.223642
 30
0.0
  0
VERTEX
  8
CSLAYER1
  6
CONTINUOUS
 62
     7
 10
134.225743
 20
150.244202
 30
0.0
  0
VERTEX
  8
CSLAYER1
  6
CONTINUOUS
 62
     7
 10
134.336465
 20
150.278294
 30
0.0
  0
VERTEX
  8
CSLAYER1
  6
CONTINUOUS
 62
     7
 10
134.444626
 20
150.325660
 30
0.0
  0
VERTEX
  8
CSLAYER1
  6
CONTINUOUS
 62
     7
 10
134.549404
 20
150.385938
 30
0.0
  0
VERTEX
  8
CSLAYER1
  6
CONTINUOUS
 62
     7
 10
134.650000
 20
150.458670
 30
0.0
  0
VERTEX
  8
CSLAYER1
  6
CONTINUOUS
 62
     7
 10
134.745649
 20
150.543302
 30
0.0
  0
VERTEX
  8
CSLAYER1
  6
CONTINUOUS
 62
     7
 10
134.835624
 20
150.639191
 30
0.0
  0
VERTEX
  8
CSLAYER1
  6
CONTINUOUS
 62
     7
 10
134.919239
 20
150.745606
 30
0.0
  0
VERTEX
  8
CSLAYER1
  6
CONTINUOUS
 62
     7
 10
134.995858
 20
150.861738
 30
0.0
  0
VERTEX
  8
CSLAYER1
  6
CONTINUOUS
 62
     7
 10
135.064898
 20
150.986703
 30
0.0
  0
VERTEX
  8
CSLAYER1
  6
CONTINUOUS
 62
     7
 10
135.125833
 20
151.119549
 30
0.0
  0
VERTEX
  8
CSLAYER1
  6
CONTINUOUS
 62
     7
 10
135.178200
 20
151.259266
 30
0.0
  0
VERTEX
  8
CSLAYER1
  6
CONTINUOUS
 62
     7
 10
135.221600
 20
151.404791
 30
0.0
  0
VERTEX
  8
CSLAYER1
  6
CONTINUOUS
 62
     7
 10
135.255704
 20
151.555015
 30
0.0
  0
VERTEX
  8
CSLAYER1
  6
CONTINUOUS
 62
     7
 10
135.280250
 20
151.708796
 30
0.0
  0
VERTEX
  8
CSLAYER1
  6
CONTINUOUS
 62
     7
 10
135.295053
 20
151.864962
 30
0.0
  0
VERTEX
  8
CSLAYER1
  6
CONTINUOUS
 62
     7
 10
135.300000
 20
152.022327
 30
0.0
  0
VERTEX
  8
CSLAYER1
  6
CONTINUOUS
 62
     7
 10
135.295053
 20
152.179692
 30
0.0
  0
VERTEX
  8
CSLAYER1
  6
CONTINUOUS
 62
     7
 10
135.280250
 20
152.335858
 30
0.0
  0
VERTEX
  8
CSLAYER1
  6
CONTINUOUS
 62
     7
 10
135.255704
 20
152.489639
 30
0.0
  0
VERTEX
  8
CSLAYER1
  6
CONTINUOUS
 62
     7
 10
135.221600
 20
152.639863
 30
0.0
  0
VERTEX
  8
CSLAYER1
  6
CONTINUOUS
 62
     7
 10
135.178200
 20
152.785388
 30
0.0
  0
VERTEX
  8
CSLAYER1
  6
CONTINUOUS
 62
     7
 10
135.125833
 20
152.925105
 30
0.0
  0
VERTEX
  8
CSLAYER1
  6
CONTINUOUS
 62
     7
 10
135.064898
 20
153.057951
 30
0.0
  0
VERTEX
  8
CSLAYER1
  6
CONTINUOUS
 62
     7
 10
134.995858
 20
153.182916
 30
0.0
  0
VERTEX
  8
CSLAYER1
  6
CONTINUOUS
 62
     7
 10
134.919239
 20
153.299048
 30
0.0
  0
VERTEX
  8
CSLAYER1
  6
CONTINUOUS
 62
     7
 10
134.835624
 20
153.405463
 30
0.0
  0
VERTEX
  8
CSLAYER1
  6
CONTINUOUS
 62
     7
 10
134.745649
 20
153.501352
 30
0.0
  0
VERTEX
  8
CSLAYER1
  6
CONTINUOUS
 62
     7
 10
134.650000
 20
153.585984
 30
0.0
  0
VERTEX
  8
CSLAYER1
  6
CONTINUOUS
 62
     7
 10
134.549404
 20
153.658716
 30
0.0
  0
VERTEX
  8
CSLAYER1
  6
CONTINUOUS
 62
     7
 10
134.444626
 20
153.718994
 30
0.0
  0
VERTEX
  8
CSLAYER1
  6
CONTINUOUS
 62
     7
 10
134.336465
 20
153.766360
 30
0.0
  0
VERTEX
  8
CSLAYER1
  6
CONTINUOUS
 62
     7
 10
134.225743
 20
153.800452
 30
0.0
  0
VERTEX
  8
CSLAYER1
  6
CONTINUOUS
 62
     7
 10
134.113302
 20
153.821012
 30
0.0
  0
VERTEX
  8
CSLAYER1
  6
CONTINUOUS
 62
     7
 10
134.000000
 20
153.827883
 30
0.0
  0
SEQEND
  0
ARC
  8
CSLAYER1
  6
CONTINUOUS
 62
     3
 10
135.011111
 20
147.022327
 40
1.805556
 50
109.000802
 51
250.999198
  0
POLYLINE
  8
CSLAYER1
  6
CONTINUOUS
 62
     7
 66
     1
 10
0.0
 20
0.0
 30
0.0
  0
VERTEX
  8
CSLAYER1
  6
CONTINUOUS
 62
     7
 10
134.000000
 20
148.827883
 30
0.0
  0
VERTEX
  8
CSLAYER1
  6
CONTINUOUS
 62
     7
 10
133.886698
 20
148.821012
 30
0.0
  0
VERTEX
  8
CSLAYER1
  6
CONTINUOUS
 62
     7
 10
133.774257
 20
148.800452
 30
0.0
  0
VERTEX
  8
CSLAYER1
  6
CONTINUOUS
 62
     7
 10
133.663535
 20
148.766360
 30
0.0
  0
VERTEX
  8
CSLAYER1
  6
CONTINUOUS
 62
     7
 10
133.555374
 20
148.718994
 30
0.0
  0
VERTEX
  8
CSLAYER1
  6
CONTINUOUS
 62
     7
 10
133.450596
 20
148.658716
 30
0.0
  0
VERTEX
  8
CSLAYER1
  6
CONTINUOUS
 62
     7
 10
133.350000
 20
148.585984
 30
0.0
  0
VERTEX
  8
CSLAYER1
  6
CONTINUOUS
 62
     7
 10
133.254351
 20
148.501352
 30
0.0
  0
VERTEX
  8
CSLAYER1
  6
CONTINUOUS
 62
     7
 10
133.164376
 20
148.405463
 30
0.0
  0
VERTEX
  8
CSLAYER1
  6
CONTINUOUS
 62
     7
 10
133.080761
 20
148.299048
 30
0.0
  0
VERTEX
  8
CSLAYER1
  6
CONTINUOUS
 62
     7
 10
133.004142
 20
148.182916
 30
0.0
  0
VERTEX
  8
CSLAYER1
  6
CONTINUOUS
 62
     7
 10
132.935102
 20
148.057951
 30
0.0
  0
VERTEX
  8
CSLAYER1
  6
CONTINUOUS
 62
     7
 10
132.874167
 20
147.925105
 30
0.0
  0
VERTEX
  8
CSLAYER1
  6
CONTINUOUS
 62
     7
 10
132.821800
 20
147.785388
 30
0.0
  0
VERTEX
  8
CSLAYER1
  6
CONTINUOUS
 62
     7
 10
132.778400
 20
147.639863
 30
0.0
  0
VERTEX
  8
CSLAYER1
  6
CONTINUOUS
 62
     7
 10
132.744296
 20
147.489639
 30
0.0
  0
VERTEX
  8
CSLAYER1
  6
CONTINUOUS
 62
     7
 10
132.719750
 20
147.335858
 30
0.0
  0
VERTEX
  8
CSLAYER1
  6
CONTINUOUS
 62
     7
 10
132.704947
 20
147.179692
 30
0.0
  0
VERTEX
  8
CSLAYER1
  6
CONTINUOUS
 62
     7
 10
132.700000
 20
147.022327
 30
0.0
  0
VERTEX
  8
CSLAYER1
  6
CONTINUOUS
 62
     7
 10
132.704947
 20
146.864962
 30
0.0
  0
VERTEX
  8
CSLAYER1
  6
CONTINUOUS
 62
     7
 10
132.719750
 20
146.708796
 30
0.0
  0
VERTEX
  8
CSLAYER1
  6
CONTINUOUS
 62
     7
 10
132.744296
 20
146.555015
 30
0.0
  0
VERTEX
  8
CSLAYER1
  6
CONTINUOUS
 62
     7
 10
132.778400
 20
146.404791
 30
0.0
  0
VERTEX
  8
CSLAYER1
  6
CONTINUOUS
 62
     7
 10
132.821800
 20
146.259266
 30
0.0
  0
VERTEX
  8
CSLAYER1
  6
CONTINUOUS
 62
     7
 10
132.874167
 20
146.119549
 30
0.0
  0
VERTEX
  8
CSLAYER1
  6
CONTINUOUS
 62
     7
 10
132.935102
 20
145.986703
 30
0.0
  0
VERTEX
  8
CSLAYER1
  6
CONTINUOUS
 62
     7
 10
133.004142
 20
145.861738
 30
0.0
  0
VERTEX
  8
CSLAYER1
  6
CONTINUOUS
 62
     7
 10
133.080761
 20
145.745606
 30
0.0
  0
VERTEX
  8
CSLAYER1
  6
CONTINUOUS
 62
     7
 10
133.164376
 20
145.639191
 30
0.0
  0
VERTEX
  8
CSLAYER1
  6
CONTINUOUS
 62
     7
 10
133.254351
 20
145.543302
 30
0.0
  0
VERTEX
  8
CSLAYER1
  6
CONTINUOUS
 62
     7
 10
133.350000
 20
145.458670
 30
0.0
  0
VERTEX
  8
CSLAYER1
  6
CONTINUOUS
 62
     7
 10
133.450596
 20
145.385938
 30
0.0
  0
VERTEX
  8
CSLAYER1
  6
CONTINUOUS
 62
     7
 10
133.555374
 20
145.325660
 30
0.0
  0
VERTEX
  8
CSLAYER1
  6
CONTINUOUS
 62
     7
 10
133.663535
 20
145.278294
 30
0.0
  0
VERTEX
  8
CSLAYER1
  6
CONTINUOUS
 62
     7
 10
133.774257
 20
145.244202
 30
0.0
  0
VERTEX
  8
CSLAYER1
  6
CONTINUOUS
 62
     7
 10
133.886698
 20
145.223642
 30
0.0
  0
VERTEX
  8
CSLAYER1
  6
CONTINUOUS
 62
     7
 10
134.000000
 20
145.216771
 30
0.0
  0
VERTEX
  8
CSLAYER1
  6
CONTINUOUS
 62
     7
 10
134.113302
 20
145.223642
 30
0.0
  0
VERTEX
  8
CSLAYER1
  6
CONTINUOUS
 62
     7
 10
134.225743
 20
145.244202
 30
0.0
  0
VERTEX
  8
CSLAYER1
  6
CONTINUOUS
 62
     7
 10
134.336465
 20
145.278294
 30
0.0
  0
VERTEX
  8
CSLAYER1
  6
CONTINUOUS
 62
     7
 10
134.444626
 20
145.325660
 30
0.0
  0
VERTEX
  8
CSLAYER1
  6
CONTINUOUS
 62
     7
 10
134.549404
 20
145.385938
 30
0.0
  0
VERTEX
  8
CSLAYER1
  6
CONTINUOUS
 62
     7
 10
134.650000
 20
145.458670
 30
0.0
  0
VERTEX
  8
CSLAYER1
  6
CONTINUOUS
 62
     7
 10
134.745649
 20
145.543302
 30
0.0
  0
VERTEX
  8
CSLAYER1
  6
CONTINUOUS
 62
     7
 10
134.835624
 20
145.639191
 30
0.0
  0
VERTEX
  8
CSLAYER1
  6
CONTINUOUS
 62
     7
 10
134.919239
 20
145.745606
 30
0.0
  0
VERTEX
  8
CSLAYER1
  6
CONTINUOUS
 62
     7
 10
134.995858
 20
145.861738
 30
0.0
  0
VERTEX
  8
CSLAYER1
  6
CONTINUOUS
 62
     7
 10
135.064898
 20
145.986703
 30
0.0
  0
VERTEX
  8
CSLAYER1
  6
CONTINUOUS
 62
     7
 10
135.125833
 20
146.119549
 30
0.0
  0
VERTEX
  8
CSLAYER1
  6
CONTINUOUS
 62
     7
 10
135.178200
 20
146.259266
 30
0.0
  0
VERTEX
  8
CSLAYER1
  6
CONTINUOUS
 62
     7
 10
135.221600
 20
146.404791
 30
0.0
  0
VERTEX
  8
CSLAYER1
  6
CONTINUOUS
 62
     7
 10
135.255704
 20
146.555015
 30
0.0
  0
VERTEX
  8
CSLAYER1
  6
CONTINUOUS
 62
     7
 10
135.280250
 20
146.708796
 30
0.0
  0
VERTEX
  8
CSLAYER1
  6
CONTINUOUS
 62
     7
 10
135.295053
 20
146.864962
 30
0.0
  0
VERTEX
  8
CSLAYER1
  6
CONTINUOUS
 62
     7
 10
135.300000
 20
147.022327
 30
0.0
  0
VERTEX
  8
CSLAYER1
  6
CONTINUOUS
 62
     7
 10
135.295053
 20
147.179692
 30
0.0
  0
VERTEX
  8
CSLAYER1
  6
CONTINUOUS
 62
     7
 10
135.280250
 20
147.335858
 30
0.0
  0
VERTEX
  8
CSLAYER1
  6
CONTINUOUS
 62
     7
 10
135.255704
 20
147.489639
 30
0.0
  0
VERTEX
  8
CSLAYER1
  6
CONTINUOUS
 62
     7
 10
135.221600
 20
147.639863
 30
0.0
  0
VERTEX
  8
CSLAYER1
  6
CONTINUOUS
 62
     7
 10
135.178200
 20
147.785388
 30
0.0
  0
VERTEX
  8
CSLAYER1
  6
CONTINUOUS
 62
     7
 10
135.125833
 20
147.925105
 30
0.0
  0
VERTEX
  8
CSLAYER1
  6
CONTINUOUS
 62
     7
 10
135.064898
 20
148.057951
 30
0.0
  0
VERTEX
  8
CSLAYER1
  6
CONTINUOUS
 62
     7
 10
134.995858
 20
148.182916
 30
0.0
  0
VERTEX
  8
CSLAYER1
  6
CONTINUOUS
 62
     7
 10
134.919239
 20
148.299048
 30
0.0
  0
VERTEX
  8
CSLAYER1
  6
CONTINUOUS
 62
     7
 10
134.835624
 20
148.405463
 30
0.0
  0
VERTEX
  8
CSLAYER1
  6
CONTINUOUS
 62
     7
 10
134.745649
 20
148.501352
 30
0.0
  0
VERTEX
  8
CSLAYER1
  6
CONTINUOUS
 62
     7
 10
134.650000
 20
148.585984
 30
0.0
  0
VERTEX
  8
CSLAYER1
  6
CONTINUOUS
 62
     7
 10
134.549404
 20
148.658716
 30
0.0
  0
VERTEX
  8
CSLAYER1
  6
CONTINUOUS
 62
     7
 10
134.444626
 20
148.718994
 30
0.0
  0
VERTEX
  8
CSLAYER1
  6
CONTINUOUS
 62
     7
 10
134.336465
 20
148.766360
 30
0.0
  0
VERTEX
  8
CSLAYER1
  6
CONTINUOUS
 62
     7
 10
134.225743
 20
148.800452
 30
0.0
  0
VERTEX
  8
CSLAYER1
  6
CONTINUOUS
 62
     7
 10
134.113302
 20
148.821012
 30
0.0
  0
VERTEX
  8
CSLAYER1
  6
CONTINUOUS
 62
     7
 10
134.000000
 20
148.827883
 30
0.0
  0
SEQEND
  0
ARC
  8
CSLAYER1
  6
CONTINUOUS
 62
     3
 10
135.011111
 20
142.022327
 40
1.805556
 50
109.000802
 51
250.999198
  0
POLYLINE
  8
CSLAYER1
  6
CONTINUOUS
 62
     7
 66
     1
 10
0.0
 20
0.0
 30
0.0
  0
VERTEX
  8
CSLAYER1
  6
CONTINUOUS
 62
     7
 10
134.000000
 20
143.827883
 30
0.0
  0
VERTEX
  8
CSLAYER1
  6
CONTINUOUS
 62
     7
 10
133.886698
 20
143.821012
 30
0.0
  0
VERTEX
  8
CSLAYER1
  6
CONTINUOUS
 62
     7
 10
133.774257
 20
143.800452
 30
0.0
  0
VERTEX
  8
CSLAYER1
  6
CONTINUOUS
 62
     7
 10
133.663535
 20
143.766360
 30
0.0
  0
VERTEX
  8
CSLAYER1
  6
CONTINUOUS
 62
     7
 10
133.555374
 20
143.718994
 30
0.0
  0
VERTEX
  8
CSLAYER1
  6
CONTINUOUS
 62
     7
 10
133.450596
 20
143.658716
 30
0.0
  0
VERTEX
  8
CSLAYER1
  6
CONTINUOUS
 62
     7
 10
133.350000
 20
143.585984
 30
0.0
  0
VERTEX
  8
CSLAYER1
  6
CONTINUOUS
 62
     7
 10
133.254351
 20
143.501352
 30
0.0
  0
VERTEX
  8
CSLAYER1
  6
CONTINUOUS
 62
     7
 10
133.164376
 20
143.405463
 30
0.0
  0
VERTEX
  8
CSLAYER1
  6
CONTINUOUS
 62
     7
 10
133.080761
 20
143.299048
 30
0.0
  0
VERTEX
  8
CSLAYER1
  6
CONTINUOUS
 62
     7
 10
133.004142
 20
143.182916
 30
0.0
  0
VERTEX
  8
CSLAYER1
  6
CONTINUOUS
 62
     7
 10
132.935102
 20
143.057951
 30
0.0
  0
VERTEX
  8
CSLAYER1
  6
CONTINUOUS
 62
     7
 10
132.874167
 20
142.925105
 30
0.0
  0
VERTEX
  8
CSLAYER1
  6
CONTINUOUS
 62
     7
 10
132.821800
 20
142.785388
 30
0.0
  0
VERTEX
  8
CSLAYER1
  6
CONTINUOUS
 62
     7
 10
132.778400
 20
142.639863
 30
0.0
  0
VERTEX
  8
CSLAYER1
  6
CONTINUOUS
 62
     7
 10
132.744296
 20
142.489639
 30
0.0
  0
VERTEX
  8
CSLAYER1
  6
CONTINUOUS
 62
     7
 10
132.719750
 20
142.335858
 30
0.0
  0
VERTEX
  8
CSLAYER1
  6
CONTINUOUS
 62
     7
 10
132.704947
 20
142.179692
 30
0.0
  0
VERTEX
  8
CSLAYER1
  6
CONTINUOUS
 62
     7
 10
132.700000
 20
142.022327
 30
0.0
  0
VERTEX
  8
CSLAYER1
  6
CONTINUOUS
 62
     7
 10
132.704947
 20
141.864962
 30
0.0
  0
VERTEX
  8
CSLAYER1
  6
CONTINUOUS
 62
     7
 10
132.719750
 20
141.708796
 30
0.0
  0
VERTEX
  8
CSLAYER1
  6
CONTINUOUS
 62
     7
 10
132.744296
 20
141.555015
 30
0.0
  0
VERTEX
  8
CSLAYER1
  6
CONTINUOUS
 62
     7
 10
132.778400
 20
141.404791
 30
0.0
  0
VERTEX
  8
CSLAYER1
  6
CONTINUOUS
 62
     7
 10
132.821800
 20
141.259266
 30
0.0
  0
VERTEX
  8
CSLAYER1
  6
CONTINUOUS
 62
     7
 10
132.874167
 20
141.119549
 30
0.0
  0
VERTEX
  8
CSLAYER1
  6
CONTINUOUS
 62
     7
 10
132.935102
 20
140.986703
 30
0.0
  0
VERTEX
  8
CSLAYER1
  6
CONTINUOUS
 62
     7
 10
133.004142
 20
140.861738
 30
0.0
  0
VERTEX
  8
CSLAYER1
  6
CONTINUOUS
 62
     7
 10
133.080761
 20
140.745606
 30
0.0
  0
VERTEX
  8
CSLAYER1
  6
CONTINUOUS
 62
     7
 10
133.164376
 20
140.639191
 30
0.0
  0
VERTEX
  8
CSLAYER1
  6
CONTINUOUS
 62
     7
 10
133.254351
 20
140.543302
 30
0.0
  0
VERTEX
  8
CSLAYER1
  6
CONTINUOUS
 62
     7
 10
133.350000
 20
140.458670
 30
0.0
  0
VERTEX
  8
CSLAYER1
  6
CONTINUOUS
 62
     7
 10
133.450596
 20
140.385938
 30
0.0
  0
VERTEX
  8
CSLAYER1
  6
CONTINUOUS
 62
     7
 10
133.555374
 20
140.325660
 30
0.0
  0
VERTEX
  8
CSLAYER1
  6
CONTINUOUS
 62
     7
 10
133.663535
 20
140.278294
 30
0.0
  0
VERTEX
  8
CSLAYER1
  6
CONTINUOUS
 62
     7
 10
133.774257
 20
140.244202
 30
0.0
  0
VERTEX
  8
CSLAYER1
  6
CONTINUOUS
 62
     7
 10
133.886698
 20
140.223642
 30
0.0
  0
VERTEX
  8
CSLAYER1
  6
CONTINUOUS
 62
     7
 10
134.000000
 20
140.216771
 30
0.0
  0
VERTEX
  8
CSLAYER1
  6
CONTINUOUS
 62
     7
 10
134.113302
 20
140.223642
 30
0.0
  0
VERTEX
  8
CSLAYER1
  6
CONTINUOUS
 62
     7
 10
134.225743
 20
140.244202
 30
0.0
  0
VERTEX
  8
CSLAYER1
  6
CONTINUOUS
 62
     7
 10
134.336465
 20
140.278294
 30
0.0
  0
VERTEX
  8
CSLAYER1
  6
CONTINUOUS
 62
     7
 10
134.444626
 20
140.325660
 30
0.0
  0
VERTEX
  8
CSLAYER1
  6
CONTINUOUS
 62
     7
 10
134.549404
 20
140.385938
 30
0.0
  0
VERTEX
  8
CSLAYER1
  6
CONTINUOUS
 62
     7
 10
134.650000
 20
140.458670
 30
0.0
  0
VERTEX
  8
CSLAYER1
  6
CONTINUOUS
 62
     7
 10
134.745649
 20
140.543302
 30
0.0
  0
VERTEX
  8
CSLAYER1
  6
CONTINUOUS
 62
     7
 10
134.835624
 20
140.639191
 30
0.0
  0
VERTEX
  8
CSLAYER1
  6
CONTINUOUS
 62
     7
 10
134.919239
 20
140.745606
 30
0.0
  0
VERTEX
  8
CSLAYER1
  6
CONTINUOUS
 62
     7
 10
134.995858
 20
140.861738
 30
0.0
  0
VERTEX
  8
CSLAYER1
  6
CONTINUOUS
 62
     7
 10
135.064898
 20
140.986703
 30
0.0
  0
VERTEX
  8
CSLAYER1
  6
CONTINUOUS
 62
     7
 10
135.125833
 20
141.119549
 30
0.0
  0
VERTEX
  8
CSLAYER1
  6
CONTINUOUS
 62
     7
 10
135.178200
 20
141.259266
 30
0.0
  0
VERTEX
  8
CSLAYER1
  6
CONTINUOUS
 62
     7
 10
135.221600
 20
141.404791
 30
0.0
  0
VERTEX
  8
CSLAYER1
  6
CONTINUOUS
 62
     7
 10
135.255704
 20
141.555015
 30
0.0
  0
VERTEX
  8
CSLAYER1
  6
CONTINUOUS
 62
     7
 10
135.280250
 20
141.708796
 30
0.0
  0
VERTEX
  8
CSLAYER1
  6
CONTINUOUS
 62
     7
 10
135.295053
 20
141.864962
 30
0.0
  0
VERTEX
  8
CSLAYER1
  6
CONTINUOUS
 62
     7
 10
135.300000
 20
142.022327
 30
0.0
  0
VERTEX
  8
CSLAYER1
  6
CONTINUOUS
 62
     7
 10
135.295053
 20
142.179692
 30
0.0
  0
VERTEX
  8
CSLAYER1
  6
CONTINUOUS
 62
     7
 10
135.280250
 20
142.335858
 30
0.0
  0
VERTEX
  8
CSLAYER1
  6
CONTINUOUS
 62
     7
 10
135.255704
 20
142.489639
 30
0.0
  0
VERTEX
  8
CSLAYER1
  6
CONTINUOUS
 62
     7
 10
135.221600
 20
142.639863
 30
0.0
  0
VERTEX
  8
CSLAYER1
  6
CONTINUOUS
 62
     7
 10
135.178200
 20
142.785388
 30
0.0
  0
VERTEX
  8
CSLAYER1
  6
CONTINUOUS
 62
     7
 10
135.125833
 20
142.925105
 30
0.0
  0
VERTEX
  8
CSLAYER1
  6
CONTINUOUS
 62
     7
 10
135.064898
 20
143.057951
 30
0.0
  0
VERTEX
  8
CSLAYER1
  6
CONTINUOUS
 62
     7
 10
134.995858
 20
143.182916
 30
0.0
  0
VERTEX
  8
CSLAYER1
  6
CONTINUOUS
 62
     7
 10
134.919239
 20
143.299048
 30
0.0
  0
VERTEX
  8
CSLAYER1
  6
CONTINUOUS
 62
     7
 10
134.835624
 20
143.405463
 30
0.0
  0
VERTEX
  8
CSLAYER1
  6
CONTINUOUS
 62
     7
 10
134.745649
 20
143.501352
 30
0.0
  0
VERTEX
  8
CSLAYER1
  6
CONTINUOUS
 62
     7
 10
134.650000
 20
143.585984
 30
0.0
  0
VERTEX
  8
CSLAYER1
  6
CONTINUOUS
 62
     7
 10
134.549404
 20
143.658716
 30
0.0
  0
VERTEX
  8
CSLAYER1
  6
CONTINUOUS
 62
     7
 10
134.444626
 20
143.718994
 30
0.0
  0
VERTEX
  8
CSLAYER1
  6
CONTINUOUS
 62
     7
 10
134.336465
 20
143.766360
 30
0.0
  0
VERTEX
  8
CSLAYER1
  6
CONTINUOUS
 62
     7
 10
134.225743
 20
143.800452
 30
0.0
  0
VERTEX
  8
CSLAYER1
  6
CONTINUOUS
 62
     7
 10
134.113302
 20
143.821012
 30
0.0
  0
VERTEX
  8
CSLAYER1
  6
CONTINUOUS
 62
     7
 10
134.000000
 20
143.827883
 30
0.0
  0
SEQEND
  0
ARC
  8
CSLAYER1
  6
CONTINUOUS
 62
     3
 10
135.011111
 20
137.022327
 40
1.805556
 50
109.000802
 51
250.999198
  0
POLYLINE
  8
CSLAYER1
  6
CONTINUOUS
 62
     7
 66
     1
 10
0.0
 20
0.0
 30
0.0
  0
VERTEX
  8
CSLAYER1
  6
CONTINUOUS
 62
     7
 10
134.000000
 20
138.827883
 30
0.0
  0
VERTEX
  8
CSLAYER1
  6
CONTINUOUS
 62
     7
 10
133.886698
 20
138.821012
 30
0.0
  0
VERTEX
  8
CSLAYER1
  6
CONTINUOUS
 62
     7
 10
133.774257
 20
138.800452
 30
0.0
  0
VERTEX
  8
CSLAYER1
  6
CONTINUOUS
 62
     7
 10
133.663535
 20
138.766360
 30
0.0
  0
VERTEX
  8
CSLAYER1
  6
CONTINUOUS
 62
     7
 10
133.555374
 20
138.718994
 30
0.0
  0
VERTEX
  8
CSLAYER1
  6
CONTINUOUS
 62
     7
 10
133.450596
 20
138.658716
 30
0.0
  0
VERTEX
  8
CSLAYER1
  6
CONTINUOUS
 62
     7
 10
133.350000
 20
138.585984
 30
0.0
  0
VERTEX
  8
CSLAYER1
  6
CONTINUOUS
 62
     7
 10
133.254351
 20
138.501352
 30
0.0
  0
VERTEX
  8
CSLAYER1
  6
CONTINUOUS
 62
     7
 10
133.164376
 20
138.405463
 30
0.0
  0
VERTEX
  8
CSLAYER1
  6
CONTINUOUS
 62
     7
 10
133.080761
 20
138.299048
 30
0.0
  0
VERTEX
  8
CSLAYER1
  6
CONTINUOUS
 62
     7
 10
133.004142
 20
138.182916
 30
0.0
  0
VERTEX
  8
CSLAYER1
  6
CONTINUOUS
 62
     7
 10
132.935102
 20
138.057951
 30
0.0
  0
VERTEX
  8
CSLAYER1
  6
CONTINUOUS
 62
     7
 10
132.874167
 20
137.925105
 30
0.0
  0
VERTEX
  8
CSLAYER1
  6
CONTINUOUS
 62
     7
 10
132.821800
 20
137.785388
 30
0.0
  0
VERTEX
  8
CSLAYER1
  6
CONTINUOUS
 62
     7
 10
132.778400
 20
137.639863
 30
0.0
  0
VERTEX
  8
CSLAYER1
  6
CONTINUOUS
 62
     7
 10
132.744296
 20
137.489639
 30
0.0
  0
VERTEX
  8
CSLAYER1
  6
CONTINUOUS
 62
     7
 10
132.719750
 20
137.335858
 30
0.0
  0
VERTEX
  8
CSLAYER1
  6
CONTINUOUS
 62
     7
 10
132.704947
 20
137.179692
 30
0.0
  0
VERTEX
  8
CSLAYER1
  6
CONTINUOUS
 62
     7
 10
132.700000
 20
137.022327
 30
0.0
  0
VERTEX
  8
CSLAYER1
  6
CONTINUOUS
 62
     7
 10
132.704947
 20
136.864962
 30
0.0
  0
VERTEX
  8
CSLAYER1
  6
CONTINUOUS
 62
     7
 10
132.719750
 20
136.708796
 30
0.0
  0
VERTEX
  8
CSLAYER1
  6
CONTINUOUS
 62
     7
 10
132.744296
 20
136.555015
 30
0.0
  0
VERTEX
  8
CSLAYER1
  6
CONTINUOUS
 62
     7
 10
132.778400
 20
136.404791
 30
0.0
  0
VERTEX
  8
CSLAYER1
  6
CONTINUOUS
 62
     7
 10
132.821800
 20
136.259266
 30
0.0
  0
VERTEX
  8
CSLAYER1
  6
CONTINUOUS
 62
     7
 10
132.874167
 20
136.119549
 30
0.0
  0
VERTEX
  8
CSLAYER1
  6
CONTINUOUS
 62
     7
 10
132.935102
 20
135.986703
 30
0.0
  0
VERTEX
  8
CSLAYER1
  6
CONTINUOUS
 62
     7
 10
133.004142
 20
135.861738
 30
0.0
  0
VERTEX
  8
CSLAYER1
  6
CONTINUOUS
 62
     7
 10
133.080761
 20
135.745606
 30
0.0
  0
VERTEX
  8
CSLAYER1
  6
CONTINUOUS
 62
     7
 10
133.164376
 20
135.639191
 30
0.0
  0
VERTEX
  8
CSLAYER1
  6
CONTINUOUS
 62
     7
 10
133.254351
 20
135.543302
 30
0.0
  0
VERTEX
  8
CSLAYER1
  6
CONTINUOUS
 62
     7
 10
133.350000
 20
135.458670
 30
0.0
  0
VERTEX
  8
CSLAYER1
  6
CONTINUOUS
 62
     7
 10
133.450596
 20
135.385938
 30
0.0
  0
VERTEX
  8
CSLAYER1
  6
CONTINUOUS
 62
     7
 10
133.555374
 20
135.325660
 30
0.0
  0
VERTEX
  8
CSLAYER1
  6
CONTINUOUS
 62
     7
 10
133.663535
 20
135.278294
 30
0.0
  0
VERTEX
  8
CSLAYER1
  6
CONTINUOUS
 62
     7
 10
133.774257
 20
135.244202
 30
0.0
  0
VERTEX
  8
CSLAYER1
  6
CONTINUOUS
 62
     7
 10
133.886698
 20
135.223642
 30
0.0
  0
VERTEX
  8
CSLAYER1
  6
CONTINUOUS
 62
     7
 10
134.000000
 20
135.216771
 30
0.0
  0
VERTEX
  8
CSLAYER1
  6
CONTINUOUS
 62
     7
 10
134.113302
 20
135.223642
 30
0.0
  0
VERTEX
  8
CSLAYER1
  6
CONTINUOUS
 62
     7
 10
134.225743
 20
135.244202
 30
0.0
  0
VERTEX
  8
CSLAYER1
  6
CONTINUOUS
 62
     7
 10
134.336465
 20
135.278294
 30
0.0
  0
VERTEX
  8
CSLAYER1
  6
CONTINUOUS
 62
     7
 10
134.444626
 20
135.325660
 30
0.0
  0
VERTEX
  8
CSLAYER1
  6
CONTINUOUS
 62
     7
 10
134.549404
 20
135.385938
 30
0.0
  0
VERTEX
  8
CSLAYER1
  6
CONTINUOUS
 62
     7
 10
134.650000
 20
135.458670
 30
0.0
  0
VERTEX
  8
CSLAYER1
  6
CONTINUOUS
 62
     7
 10
134.745649
 20
135.543302
 30
0.0
  0
VERTEX
  8
CSLAYER1
  6
CONTINUOUS
 62
     7
 10
134.835624
 20
135.639191
 30
0.0
  0
VERTEX
  8
CSLAYER1
  6
CONTINUOUS
 62
     7
 10
134.919239
 20
135.745606
 30
0.0
  0
VERTEX
  8
CSLAYER1
  6
CONTINUOUS
 62
     7
 10
134.995858
 20
135.861738
 30
0.0
  0
VERTEX
  8
CSLAYER1
  6
CONTINUOUS
 62
     7
 10
135.064898
 20
135.986703
 30
0.0
  0
VERTEX
  8
CSLAYER1
  6
CONTINUOUS
 62
     7
 10
135.125833
 20
136.119549
 30
0.0
  0
VERTEX
  8
CSLAYER1
  6
CONTINUOUS
 62
     7
 10
135.178200
 20
136.259266
 30
0.0
  0
VERTEX
  8
CSLAYER1
  6
CONTINUOUS
 62
     7
 10
135.221600
 20
136.404791
 30
0.0
  0
VERTEX
  8
CSLAYER1
  6
CONTINUOUS
 62
     7
 10
135.255704
 20
136.555015
 30
0.0
  0
VERTEX
  8
CSLAYER1
  6
CONTINUOUS
 62
     7
 10
135.280250
 20
136.708796
 30
0.0
  0
VERTEX
  8
CSLAYER1
  6
CONTINUOUS
 62
     7
 10
135.295053
 20
136.864962
 30
0.0
  0
VERTEX
  8
CSLAYER1
  6
CONTINUOUS
 62
     7
 10
135.300000
 20
137.022327
 30
0.0
  0
VERTEX
  8
CSLAYER1
  6
CONTINUOUS
 62
     7
 10
135.295053
 20
137.179692
 30
0.0
  0
VERTEX
  8
CSLAYER1
  6
CONTINUOUS
 62
     7
 10
135.280250
 20
137.335858
 30
0.0
  0
VERTEX
  8
CSLAYER1
  6
CONTINUOUS
 62
     7
 10
135.255704
 20
137.489639
 30
0.0
  0
VERTEX
  8
CSLAYER1
  6
CONTINUOUS
 62
     7
 10
135.221600
 20
137.639863
 30
0.0
  0
VERTEX
  8
CSLAYER1
  6
CONTINUOUS
 62
     7
 10
135.178200
 20
137.785388
 30
0.0
  0
VERTEX
  8
CSLAYER1
  6
CONTINUOUS
 62
     7
 10
135.125833
 20
137.925105
 30
0.0
  0
VERTEX
  8
CSLAYER1
  6
CONTINUOUS
 62
     7
 10
135.064898
 20
138.057951
 30
0.0
  0
VERTEX
  8
CSLAYER1
  6
CONTINUOUS
 62
     7
 10
134.995858
 20
138.182916
 30
0.0
  0
VERTEX
  8
CSLAYER1
  6
CONTINUOUS
 62
     7
 10
134.919239
 20
138.299048
 30
0.0
  0
VERTEX
  8
CSLAYER1
  6
CONTINUOUS
 62
     7
 10
134.835624
 20
138.405463
 30
0.0
  0
VERTEX
  8
CSLAYER1
  6
CONTINUOUS
 62
     7
 10
134.745649
 20
138.501352
 30
0.0
  0
VERTEX
  8
CSLAYER1
  6
CONTINUOUS
 62
     7
 10
134.650000
 20
138.585984
 30
0.0
  0
VERTEX
  8
CSLAYER1
  6
CONTINUOUS
 62
     7
 10
134.549404
 20
138.658716
 30
0.0
  0
VERTEX
  8
CSLAYER1
  6
CONTINUOUS
 62
     7
 10
134.444626
 20
138.718994
 30
0.0
  0
VERTEX
  8
CSLAYER1
  6
CONTINUOUS
 62
     7
 10
134.336465
 20
138.766360
 30
0.0
  0
VERTEX
  8
CSLAYER1
  6
CONTINUOUS
 62
     7
 10
134.225743
 20
138.800452
 30
0.0
  0
VERTEX
  8
CSLAYER1
  6
CONTINUOUS
 62
     7
 10
134.113302
 20
138.821012
 30
0.0
  0
VERTEX
  8
CSLAYER1
  6
CONTINUOUS
 62
     7
 10
134.000000
 20
138.827883
 30
0.0
  0
SEQEND
  0
ARC
  8
CSLAYER1
  6
CONTINUOUS
 62
     3
 10
135.011111
 20
132.022327
 40
1.805556
 50
109.000802
 51
250.999198
  0
POLYLINE
  8
CSLAYER1
  6
CONTINUOUS
 62
     7
 66
     1
 10
0.0
 20
0.0
 30
0.0
  0
VERTEX
  8
CSLAYER1
  6
CONTINUOUS
 62
     7
 10
134.000000
 20
133.827883
 30
0.0
  0
VERTEX
  8
CSLAYER1
  6
CONTINUOUS
 62
     7
 10
133.886698
 20
133.821012
 30
0.0
  0
VERTEX
  8
CSLAYER1
  6
CONTINUOUS
 62
     7
 10
133.774257
 20
133.800452
 30
0.0
  0
VERTEX
  8
CSLAYER1
  6
CONTINUOUS
 62
     7
 10
133.663535
 20
133.766360
 30
0.0
  0
VERTEX
  8
CSLAYER1
  6
CONTINUOUS
 62
     7
 10
133.555374
 20
133.718994
 30
0.0
  0
VERTEX
  8
CSLAYER1
  6
CONTINUOUS
 62
     7
 10
133.450596
 20
133.658716
 30
0.0
  0
VERTEX
  8
CSLAYER1
  6
CONTINUOUS
 62
     7
 10
133.350000
 20
133.585984
 30
0.0
  0
VERTEX
  8
CSLAYER1
  6
CONTINUOUS
 62
     7
 10
133.254351
 20
133.501352
 30
0.0
  0
VERTEX
  8
CSLAYER1
  6
CONTINUOUS
 62
     7
 10
133.164376
 20
133.405463
 30
0.0
  0
VERTEX
  8
CSLAYER1
  6
CONTINUOUS
 62
     7
 10
133.080761
 20
133.299048
 30
0.0
  0
VERTEX
  8
CSLAYER1
  6
CONTINUOUS
 62
     7
 10
133.004142
 20
133.182916
 30
0.0
  0
VERTEX
  8
CSLAYER1
  6
CONTINUOUS
 62
     7
 10
132.935102
 20
133.057951
 30
0.0
  0
VERTEX
  8
CSLAYER1
  6
CONTINUOUS
 62
     7
 10
132.874167
 20
132.925105
 30
0.0
  0
VERTEX
  8
CSLAYER1
  6
CONTINUOUS
 62
     7
 10
132.821800
 20
132.785388
 30
0.0
  0
VERTEX
  8
CSLAYER1
  6
CONTINUOUS
 62
     7
 10
132.778400
 20
132.639863
 30
0.0
  0
VERTEX
  8
CSLAYER1
  6
CONTINUOUS
 62
     7
 10
132.744296
 20
132.489639
 30
0.0
  0
VERTEX
  8
CSLAYER1
  6
CONTINUOUS
 62
     7
 10
132.719750
 20
132.335858
 30
0.0
  0
VERTEX
  8
CSLAYER1
  6
CONTINUOUS
 62
     7
 10
132.704947
 20
132.179692
 30
0.0
  0
VERTEX
  8
CSLAYER1
  6
CONTINUOUS
 62
     7
 10
132.700000
 20
132.022327
 30
0.0
  0
VERTEX
  8
CSLAYER1
  6
CONTINUOUS
 62
     7
 10
132.704947
 20
131.864962
 30
0.0
  0
VERTEX
  8
CSLAYER1
  6
CONTINUOUS
 62
     7
 10
132.719750
 20
131.708796
 30
0.0
  0
VERTEX
  8
CSLAYER1
  6
CONTINUOUS
 62
     7
 10
132.744296
 20
131.555015
 30
0.0
  0
VERTEX
  8
CSLAYER1
  6
CONTINUOUS
 62
     7
 10
132.778400
 20
131.404791
 30
0.0
  0
VERTEX
  8
CSLAYER1
  6
CONTINUOUS
 62
     7
 10
132.821800
 20
131.259266
 30
0.0
  0
VERTEX
  8
CSLAYER1
  6
CONTINUOUS
 62
     7
 10
132.874167
 20
131.119549
 30
0.0
  0
VERTEX
  8
CSLAYER1
  6
CONTINUOUS
 62
     7
 10
132.935102
 20
130.986703
 30
0.0
  0
VERTEX
  8
CSLAYER1
  6
CONTINUOUS
 62
     7
 10
133.004142
 20
130.861738
 30
0.0
  0
VERTEX
  8
CSLAYER1
  6
CONTINUOUS
 62
     7
 10
133.080761
 20
130.745606
 30
0.0
  0
VERTEX
  8
CSLAYER1
  6
CONTINUOUS
 62
     7
 10
133.164376
 20
130.639191
 30
0.0
  0
VERTEX
  8
CSLAYER1
  6
CONTINUOUS
 62
     7
 10
133.254351
 20
130.543302
 30
0.0
  0
VERTEX
  8
CSLAYER1
  6
CONTINUOUS
 62
     7
 10
133.350000
 20
130.458670
 30
0.0
  0
VERTEX
  8
CSLAYER1
  6
CONTINUOUS
 62
     7
 10
133.450596
 20
130.385938
 30
0.0
  0
VERTEX
  8
CSLAYER1
  6
CONTINUOUS
 62
     7
 10
133.555374
 20
130.325660
 30
0.0
  0
VERTEX
  8
CSLAYER1
  6
CONTINUOUS
 62
     7
 10
133.663535
 20
130.278294
 30
0.0
  0
VERTEX
  8
CSLAYER1
  6
CONTINUOUS
 62
     7
 10
133.774257
 20
130.244202
 30
0.0
  0
VERTEX
  8
CSLAYER1
  6
CONTINUOUS
 62
     7
 10
133.886698
 20
130.223642
 30
0.0
  0
VERTEX
  8
CSLAYER1
  6
CONTINUOUS
 62
     7
 10
134.000000
 20
130.216771
 30
0.0
  0
VERTEX
  8
CSLAYER1
  6
CONTINUOUS
 62
     7
 10
134.113302
 20
130.223642
 30
0.0
  0
VERTEX
  8
CSLAYER1
  6
CONTINUOUS
 62
     7
 10
134.225743
 20
130.244202
 30
0.0
  0
VERTEX
  8
CSLAYER1
  6
CONTINUOUS
 62
     7
 10
134.336465
 20
130.278294
 30
0.0
  0
VERTEX
  8
CSLAYER1
  6
CONTINUOUS
 62
     7
 10
134.444626
 20
130.325660
 30
0.0
  0
VERTEX
  8
CSLAYER1
  6
CONTINUOUS
 62
     7
 10
134.549404
 20
130.385938
 30
0.0
  0
VERTEX
  8
CSLAYER1
  6
CONTINUOUS
 62
     7
 10
134.650000
 20
130.458670
 30
0.0
  0
VERTEX
  8
CSLAYER1
  6
CONTINUOUS
 62
     7
 10
134.745649
 20
130.543302
 30
0.0
  0
VERTEX
  8
CSLAYER1
  6
CONTINUOUS
 62
     7
 10
134.835624
 20
130.639191
 30
0.0
  0
VERTEX
  8
CSLAYER1
  6
CONTINUOUS
 62
     7
 10
134.919239
 20
130.745606
 30
0.0
  0
VERTEX
  8
CSLAYER1
  6
CONTINUOUS
 62
     7
 10
134.995858
 20
130.861738
 30
0.0
  0
VERTEX
  8
CSLAYER1
  6
CONTINUOUS
 62
     7
 10
135.064898
 20
130.986703
 30
0.0
  0
VERTEX
  8
CSLAYER1
  6
CONTINUOUS
 62
     7
 10
135.125833
 20
131.119549
 30
0.0
  0
VERTEX
  8
CSLAYER1
  6
CONTINUOUS
 62
     7
 10
135.178200
 20
131.259266
 30
0.0
  0
VERTEX
  8
CSLAYER1
  6
CONTINUOUS
 62
     7
 10
135.221600
 20
131.404791
 30
0.0
  0
VERTEX
  8
CSLAYER1
  6
CONTINUOUS
 62
     7
 10
135.255704
 20
131.555015
 30
0.0
  0
VERTEX
  8
CSLAYER1
  6
CONTINUOUS
 62
     7
 10
135.280250
 20
131.708796
 30
0.0
  0
VERTEX
  8
CSLAYER1
  6
CONTINUOUS
 62
     7
 10
135.295053
 20
131.864962
 30
0.0
  0
VERTEX
  8
CSLAYER1
  6
CONTINUOUS
 62
     7
 10
135.300000
 20
132.022327
 30
0.0
  0
VERTEX
  8
CSLAYER1
  6
CONTINUOUS
 62
     7
 10
135.295053
 20
132.179692
 30
0.0
  0
VERTEX
  8
CSLAYER1
  6
CONTINUOUS
 62
     7
 10
135.280250
 20
132.335858
 30
0.0
  0
VERTEX
  8
CSLAYER1
  6
CONTINUOUS
 62
     7
 10
135.255704
 20
132.489639
 30
0.0
  0
VERTEX
  8
CSLAYER1
  6
CONTINUOUS
 62
     7
 10
135.221600
 20
132.639863
 30
0.0
  0
VERTEX
  8
CSLAYER1
  6
CONTINUOUS
 62
     7
 10
135.178200
 20
132.785388
 30
0.0
  0
VERTEX
  8
CSLAYER1
  6
CONTINUOUS
 62
     7
 10
135.125833
 20
132.925105
 30
0.0
  0
VERTEX
  8
CSLAYER1
  6
CONTINUOUS
 62
     7
 10
135.064898
 20
133.057951
 30
0.0
  0
VERTEX
  8
CSLAYER1
  6
CONTINUOUS
 62
     7
 10
134.995858
 20
133.182916
 30
0.0
  0
VERTEX
  8
CSLAYER1
  6
CONTINUOUS
 62
     7
 10
134.919239
 20
133.299048
 30
0.0
  0
VERTEX
  8
CSLAYER1
  6
CONTINUOUS
 62
     7
 10
134.835624
 20
133.405463
 30
0.0
  0
VERTEX
  8
CSLAYER1
  6
CONTINUOUS
 62
     7
 10
134.745649
 20
133.501352
 30
0.0
  0
VERTEX
  8
CSLAYER1
  6
CONTINUOUS
 62
     7
 10
134.650000
 20
133.585984
 30
0.0
  0
VERTEX
  8
CSLAYER1
  6
CONTINUOUS
 62
     7
 10
134.549404
 20
133.658716
 30
0.0
  0
VERTEX
  8
CSLAYER1
  6
CONTINUOUS
 62
     7
 10
134.444626
 20
133.718994
 30
0.0
  0
VERTEX
  8
CSLAYER1
  6
CONTINUOUS
 62
     7
 10
134.336465
 20
133.766360
 30
0.0
  0
VERTEX
  8
CSLAYER1
  6
CONTINUOUS
 62
     7
 10
134.225743
 20
133.800452
 30
0.0
  0
VERTEX
  8
CSLAYER1
  6
CONTINUOUS
 62
     7
 10
134.113302
 20
133.821012
 30
0.0
  0
VERTEX
  8
CSLAYER1
  6
CONTINUOUS
 62
     7
 10
134.000000
 20
133.827883
 30
0.0
  0
SEQEND
  0
ARC
  8
CSLAYER1
  6
CONTINUOUS
 62
     3
 10
135.011111
 20
127.022327
 40
1.805556
 50
109.000802
 51
250.999198
  0
POLYLINE
  8
CSLAYER1
  6
CONTINUOUS
 62
     7
 66
     1
 10
0.0
 20
0.0
 30
0.0
  0
VERTEX
  8
CSLAYER1
  6
CONTINUOUS
 62
     7
 10
134.000000
 20
128.827883
 30
0.0
  0
VERTEX
  8
CSLAYER1
  6
CONTINUOUS
 62
     7
 10
133.886698
 20
128.821012
 30
0.0
  0
VERTEX
  8
CSLAYER1
  6
CONTINUOUS
 62
     7
 10
133.774257
 20
128.800452
 30
0.0
  0
VERTEX
  8
CSLAYER1
  6
CONTINUOUS
 62
     7
 10
133.663535
 20
128.766360
 30
0.0
  0
VERTEX
  8
CSLAYER1
  6
CONTINUOUS
 62
     7
 10
133.555374
 20
128.718994
 30
0.0
  0
VERTEX
  8
CSLAYER1
  6
CONTINUOUS
 62
     7
 10
133.450596
 20
128.658716
 30
0.0
  0
VERTEX
  8
CSLAYER1
  6
CONTINUOUS
 62
     7
 10
133.350000
 20
128.585984
 30
0.0
  0
VERTEX
  8
CSLAYER1
  6
CONTINUOUS
 62
     7
 10
133.254351
 20
128.501352
 30
0.0
  0
VERTEX
  8
CSLAYER1
  6
CONTINUOUS
 62
     7
 10
133.164376
 20
128.405463
 30
0.0
  0
VERTEX
  8
CSLAYER1
  6
CONTINUOUS
 62
     7
 10
133.080761
 20
128.299048
 30
0.0
  0
VERTEX
  8
CSLAYER1
  6
CONTINUOUS
 62
     7
 10
133.004142
 20
128.182916
 30
0.0
  0
VERTEX
  8
CSLAYER1
  6
CONTINUOUS
 62
     7
 10
132.935102
 20
128.057951
 30
0.0
  0
VERTEX
  8
CSLAYER1
  6
CONTINUOUS
 62
     7
 10
132.874167
 20
127.925105
 30
0.0
  0
VERTEX
  8
CSLAYER1
  6
CONTINUOUS
 62
     7
 10
132.821800
 20
127.785388
 30
0.0
  0
VERTEX
  8
CSLAYER1
  6
CONTINUOUS
 62
     7
 10
132.778400
 20
127.639863
 30
0.0
  0
VERTEX
  8
CSLAYER1
  6
CONTINUOUS
 62
     7
 10
132.744296
 20
127.489639
 30
0.0
  0
VERTEX
  8
CSLAYER1
  6
CONTINUOUS
 62
     7
 10
132.719750
 20
127.335858
 30
0.0
  0
VERTEX
  8
CSLAYER1
  6
CONTINUOUS
 62
     7
 10
132.704947
 20
127.179692
 30
0.0
  0
VERTEX
  8
CSLAYER1
  6
CONTINUOUS
 62
     7
 10
132.700000
 20
127.022327
 30
0.0
  0
VERTEX
  8
CSLAYER1
  6
CONTINUOUS
 62
     7
 10
132.704947
 20
126.864962
 30
0.0
  0
VERTEX
  8
CSLAYER1
  6
CONTINUOUS
 62
     7
 10
132.719750
 20
126.708796
 30
0.0
  0
VERTEX
  8
CSLAYER1
  6
CONTINUOUS
 62
     7
 10
132.744296
 20
126.555015
 30
0.0
  0
VERTEX
  8
CSLAYER1
  6
CONTINUOUS
 62
     7
 10
132.778400
 20
126.404791
 30
0.0
  0
VERTEX
  8
CSLAYER1
  6
CONTINUOUS
 62
     7
 10
132.821800
 20
126.259266
 30
0.0
  0
VERTEX
  8
CSLAYER1
  6
CONTINUOUS
 62
     7
 10
132.874167
 20
126.119549
 30
0.0
  0
VERTEX
  8
CSLAYER1
  6
CONTINUOUS
 62
     7
 10
132.935102
 20
125.986703
 30
0.0
  0
VERTEX
  8
CSLAYER1
  6
CONTINUOUS
 62
     7
 10
133.004142
 20
125.861738
 30
0.0
  0
VERTEX
  8
CSLAYER1
  6
CONTINUOUS
 62
     7
 10
133.080761
 20
125.745606
 30
0.0
  0
VERTEX
  8
CSLAYER1
  6
CONTINUOUS
 62
     7
 10
133.164376
 20
125.639191
 30
0.0
  0
VERTEX
  8
CSLAYER1
  6
CONTINUOUS
 62
     7
 10
133.254351
 20
125.543302
 30
0.0
  0
VERTEX
  8
CSLAYER1
  6
CONTINUOUS
 62
     7
 10
133.350000
 20
125.458670
 30
0.0
  0
VERTEX
  8
CSLAYER1
  6
CONTINUOUS
 62
     7
 10
133.450596
 20
125.385938
 30
0.0
  0
VERTEX
  8
CSLAYER1
  6
CONTINUOUS
 62
     7
 10
133.555374
 20
125.325660
 30
0.0
  0
VERTEX
  8
CSLAYER1
  6
CONTINUOUS
 62
     7
 10
133.663535
 20
125.278294
 30
0.0
  0
VERTEX
  8
CSLAYER1
  6
CONTINUOUS
 62
     7
 10
133.774257
 20
125.244202
 30
0.0
  0
VERTEX
  8
CSLAYER1
  6
CONTINUOUS
 62
     7
 10
133.886698
 20
125.223642
 30
0.0
  0
VERTEX
  8
CSLAYER1
  6
CONTINUOUS
 62
     7
 10
134.000000
 20
125.216771
 30
0.0
  0
VERTEX
  8
CSLAYER1
  6
CONTINUOUS
 62
     7
 10
134.113302
 20
125.223642
 30
0.0
  0
VERTEX
  8
CSLAYER1
  6
CONTINUOUS
 62
     7
 10
134.225743
 20
125.244202
 30
0.0
  0
VERTEX
  8
CSLAYER1
  6
CONTINUOUS
 62
     7
 10
134.336465
 20
125.278294
 30
0.0
  0
VERTEX
  8
CSLAYER1
  6
CONTINUOUS
 62
     7
 10
134.444626
 20
125.325660
 30
0.0
  0
VERTEX
  8
CSLAYER1
  6
CONTINUOUS
 62
     7
 10
134.549404
 20
125.385938
 30
0.0
  0
VERTEX
  8
CSLAYER1
  6
CONTINUOUS
 62
     7
 10
134.650000
 20
125.458670
 30
0.0
  0
VERTEX
  8
CSLAYER1
  6
CONTINUOUS
 62
     7
 10
134.745649
 20
125.543302
 30
0.0
  0
VERTEX
  8
CSLAYER1
  6
CONTINUOUS
 62
     7
 10
134.835624
 20
125.639191
 30
0.0
  0
VERTEX
  8
CSLAYER1
  6
CONTINUOUS
 62
     7
 10
134.919239
 20
125.745606
 30
0.0
  0
VERTEX
  8
CSLAYER1
  6
CONTINUOUS
 62
     7
 10
134.995858
 20
125.861738
 30
0.0
  0
VERTEX
  8
CSLAYER1
  6
CONTINUOUS
 62
     7
 10
135.064898
 20
125.986703
 30
0.0
  0
VERTEX
  8
CSLAYER1
  6
CONTINUOUS
 62
     7
 10
135.125833
 20
126.119549
 30
0.0
  0
VERTEX
  8
CSLAYER1
  6
CONTINUOUS
 62
     7
 10
135.178200
 20
126.259266
 30
0.0
  0
VERTEX
  8
CSLAYER1
  6
CONTINUOUS
 62
     7
 10
135.221600
 20
126.404791
 30
0.0
  0
VERTEX
  8
CSLAYER1
  6
CONTINUOUS
 62
     7
 10
135.255704
 20
126.555015
 30
0.0
  0
VERTEX
  8
CSLAYER1
  6
CONTINUOUS
 62
     7
 10
135.280250
 20
126.708796
 30
0.0
  0
VERTEX
  8
CSLAYER1
  6
CONTINUOUS
 62
     7
 10
135.295053
 20
126.864962
 30
0.0
  0
VERTEX
  8
CSLAYER1
  6
CONTINUOUS
 62
     7
 10
135.300000
 20
127.022327
 30
0.0
  0
VERTEX
  8
CSLAYER1
  6
CONTINUOUS
 62
     7
 10
135.295053
 20
127.179692
 30
0.0
  0
VERTEX
  8
CSLAYER1
  6
CONTINUOUS
 62
     7
 10
135.280250
 20
127.335858
 30
0.0
  0
VERTEX
  8
CSLAYER1
  6
CONTINUOUS
 62
     7
 10
135.255704
 20
127.489639
 30
0.0
  0
VERTEX
  8
CSLAYER1
  6
CONTINUOUS
 62
     7
 10
135.221600
 20
127.639863
 30
0.0
  0
VERTEX
  8
CSLAYER1
  6
CONTINUOUS
 62
     7
 10
135.178200
 20
127.785388
 30
0.0
  0
VERTEX
  8
CSLAYER1
  6
CONTINUOUS
 62
     7
 10
135.125833
 20
127.925105
 30
0.0
  0
VERTEX
  8
CSLAYER1
  6
CONTINUOUS
 62
     7
 10
135.064898
 20
128.057951
 30
0.0
  0
VERTEX
  8
CSLAYER1
  6
CONTINUOUS
 62
     7
 10
134.995858
 20
128.182916
 30
0.0
  0
VERTEX
  8
CSLAYER1
  6
CONTINUOUS
 62
     7
 10
134.919239
 20
128.299048
 30
0.0
  0
VERTEX
  8
CSLAYER1
  6
CONTINUOUS
 62
     7
 10
134.835624
 20
128.405463
 30
0.0
  0
VERTEX
  8
CSLAYER1
  6
CONTINUOUS
 62
     7
 10
134.745649
 20
128.501352
 30
0.0
  0
VERTEX
  8
CSLAYER1
  6
CONTINUOUS
 62
     7
 10
134.650000
 20
128.585984
 30
0.0
  0
VERTEX
  8
CSLAYER1
  6
CONTINUOUS
 62
     7
 10
134.549404
 20
128.658716
 30
0.0
  0
VERTEX
  8
CSLAYER1
  6
CONTINUOUS
 62
     7
 10
134.444626
 20
128.718994
 30
0.0
  0
VERTEX
  8
CSLAYER1
  6
CONTINUOUS
 62
     7
 10
134.336465
 20
128.766360
 30
0.0
  0
VERTEX
  8
CSLAYER1
  6
CONTINUOUS
 62
     7
 10
134.225743
 20
128.800452
 30
0.0
  0
VERTEX
  8
CSLAYER1
  6
CONTINUOUS
 62
     7
 10
134.113302
 20
128.821012
 30
0.0
  0
VERTEX
  8
CSLAYER1
  6
CONTINUOUS
 62
     7
 10
134.000000
 20
128.827883
 30
0.0
  0
SEQEND
  0
ARC
  8
CSLAYER1
  6
CONTINUOUS
 62
     3
 10
135.011111
 20
122.022327
 40
1.805556
 50
109.000802
 51
250.999198
  0
POLYLINE
  8
CSLAYER1
  6
CONTINUOUS
 62
     7
 66
     1
 10
0.0
 20
0.0
 30
0.0
  0
VERTEX
  8
CSLAYER1
  6
CONTINUOUS
 62
     7
 10
134.000000
 20
123.827883
 30
0.0
  0
VERTEX
  8
CSLAYER1
  6
CONTINUOUS
 62
     7
 10
133.886698
 20
123.821012
 30
0.0
  0
VERTEX
  8
CSLAYER1
  6
CONTINUOUS
 62
     7
 10
133.774257
 20
123.800452
 30
0.0
  0
VERTEX
  8
CSLAYER1
  6
CONTINUOUS
 62
     7
 10
133.663535
 20
123.766360
 30
0.0
  0
VERTEX
  8
CSLAYER1
  6
CONTINUOUS
 62
     7
 10
133.555374
 20
123.718994
 30
0.0
  0
VERTEX
  8
CSLAYER1
  6
CONTINUOUS
 62
     7
 10
133.450596
 20
123.658716
 30
0.0
  0
VERTEX
  8
CSLAYER1
  6
CONTINUOUS
 62
     7
 10
133.350000
 20
123.585984
 30
0.0
  0
VERTEX
  8
CSLAYER1
  6
CONTINUOUS
 62
     7
 10
133.254351
 20
123.501352
 30
0.0
  0
VERTEX
  8
CSLAYER1
  6
CONTINUOUS
 62
     7
 10
133.164376
 20
123.405463
 30
0.0
  0
VERTEX
  8
CSLAYER1
  6
CONTINUOUS
 62
     7
 10
133.080761
 20
123.299048
 30
0.0
  0
VERTEX
  8
CSLAYER1
  6
CONTINUOUS
 62
     7
 10
133.004142
 20
123.182916
 30
0.0
  0
VERTEX
  8
CSLAYER1
  6
CONTINUOUS
 62
     7
 10
132.935102
 20
123.057951
 30
0.0
  0
VERTEX
  8
CSLAYER1
  6
CONTINUOUS
 62
     7
 10
132.874167
 20
122.925105
 30
0.0
  0
VERTEX
  8
CSLAYER1
  6
CONTINUOUS
 62
     7
 10
132.821800
 20
122.785388
 30
0.0
  0
VERTEX
  8
CSLAYER1
  6
CONTINUOUS
 62
     7
 10
132.778400
 20
122.639863
 30
0.0
  0
VERTEX
  8
CSLAYER1
  6
CONTINUOUS
 62
     7
 10
132.744296
 20
122.489639
 30
0.0
  0
VERTEX
  8
CSLAYER1
  6
CONTINUOUS
 62
     7
 10
132.719750
 20
122.335858
 30
0.0
  0
VERTEX
  8
CSLAYER1
  6
CONTINUOUS
 62
     7
 10
132.704947
 20
122.179692
 30
0.0
  0
VERTEX
  8
CSLAYER1
  6
CONTINUOUS
 62
     7
 10
132.700000
 20
122.022327
 30
0.0
  0
VERTEX
  8
CSLAYER1
  6
CONTINUOUS
 62
     7
 10
132.704947
 20
121.864962
 30
0.0
  0
VERTEX
  8
CSLAYER1
  6
CONTINUOUS
 62
     7
 10
132.719750
 20
121.708796
 30
0.0
  0
VERTEX
  8
CSLAYER1
  6
CONTINUOUS
 62
     7
 10
132.744296
 20
121.555015
 30
0.0
  0
VERTEX
  8
CSLAYER1
  6
CONTINUOUS
 62
     7
 10
132.778400
 20
121.404791
 30
0.0
  0
VERTEX
  8
CSLAYER1
  6
CONTINUOUS
 62
     7
 10
132.821800
 20
121.259266
 30
0.0
  0
VERTEX
  8
CSLAYER1
  6
CONTINUOUS
 62
     7
 10
132.874167
 20
121.119549
 30
0.0
  0
VERTEX
  8
CSLAYER1
  6
CONTINUOUS
 62
     7
 10
132.935102
 20
120.986703
 30
0.0
  0
VERTEX
  8
CSLAYER1
  6
CONTINUOUS
 62
     7
 10
133.004142
 20
120.861738
 30
0.0
  0
VERTEX
  8
CSLAYER1
  6
CONTINUOUS
 62
     7
 10
133.080761
 20
120.745606
 30
0.0
  0
VERTEX
  8
CSLAYER1
  6
CONTINUOUS
 62
     7
 10
133.164376
 20
120.639191
 30
0.0
  0
VERTEX
  8
CSLAYER1
  6
CONTINUOUS
 62
     7
 10
133.254351
 20
120.543302
 30
0.0
  0
VERTEX
  8
CSLAYER1
  6
CONTINUOUS
 62
     7
 10
133.350000
 20
120.458670
 30
0.0
  0
VERTEX
  8
CSLAYER1
  6
CONTINUOUS
 62
     7
 10
133.450596
 20
120.385938
 30
0.0
  0
VERTEX
  8
CSLAYER1
  6
CONTINUOUS
 62
     7
 10
133.555374
 20
120.325660
 30
0.0
  0
VERTEX
  8
CSLAYER1
  6
CONTINUOUS
 62
     7
 10
133.663535
 20
120.278294
 30
0.0
  0
VERTEX
  8
CSLAYER1
  6
CONTINUOUS
 62
     7
 10
133.774257
 20
120.244202
 30
0.0
  0
VERTEX
  8
CSLAYER1
  6
CONTINUOUS
 62
     7
 10
133.886698
 20
120.223642
 30
0.0
  0
VERTEX
  8
CSLAYER1
  6
CONTINUOUS
 62
     7
 10
134.000000
 20
120.216771
 30
0.0
  0
VERTEX
  8
CSLAYER1
  6
CONTINUOUS
 62
     7
 10
134.113302
 20
120.223642
 30
0.0
  0
VERTEX
  8
CSLAYER1
  6
CONTINUOUS
 62
     7
 10
134.225743
 20
120.244202
 30
0.0
  0
VERTEX
  8
CSLAYER1
  6
CONTINUOUS
 62
     7
 10
134.336465
 20
120.278294
 30
0.0
  0
VERTEX
  8
CSLAYER1
  6
CONTINUOUS
 62
     7
 10
134.444626
 20
120.325660
 30
0.0
  0
VERTEX
  8
CSLAYER1
  6
CONTINUOUS
 62
     7
 10
134.549404
 20
120.385938
 30
0.0
  0
VERTEX
  8
CSLAYER1
  6
CONTINUOUS
 62
     7
 10
134.650000
 20
120.458670
 30
0.0
  0
VERTEX
  8
CSLAYER1
  6
CONTINUOUS
 62
     7
 10
134.745649
 20
120.543302
 30
0.0
  0
VERTEX
  8
CSLAYER1
  6
CONTINUOUS
 62
     7
 10
134.835624
 20
120.639191
 30
0.0
  0
VERTEX
  8
CSLAYER1
  6
CONTINUOUS
 62
     7
 10
134.919239
 20
120.745606
 30
0.0
  0
VERTEX
  8
CSLAYER1
  6
CONTINUOUS
 62
     7
 10
134.995858
 20
120.861738
 30
0.0
  0
VERTEX
  8
CSLAYER1
  6
CONTINUOUS
 62
     7
 10
135.064898
 20
120.986703
 30
0.0
  0
VERTEX
  8
CSLAYER1
  6
CONTINUOUS
 62
     7
 10
135.125833
 20
121.119549
 30
0.0
  0
VERTEX
  8
CSLAYER1
  6
CONTINUOUS
 62
     7
 10
135.178200
 20
121.259266
 30
0.0
  0
VERTEX
  8
CSLAYER1
  6
CONTINUOUS
 62
     7
 10
135.221600
 20
121.404791
 30
0.0
  0
VERTEX
  8
CSLAYER1
  6
CONTINUOUS
 62
     7
 10
135.255704
 20
121.555015
 30
0.0
  0
VERTEX
  8
CSLAYER1
  6
CONTINUOUS
 62
     7
 10
135.280250
 20
121.708796
 30
0.0
  0
VERTEX
  8
CSLAYER1
  6
CONTINUOUS
 62
     7
 10
135.295053
 20
121.864962
 30
0.0
  0
VERTEX
  8
CSLAYER1
  6
CONTINUOUS
 62
     7
 10
135.300000
 20
122.022327
 30
0.0
  0
VERTEX
  8
CSLAYER1
  6
CONTINUOUS
 62
     7
 10
135.295053
 20
122.179692
 30
0.0
  0
VERTEX
  8
CSLAYER1
  6
CONTINUOUS
 62
     7
 10
135.280250
 20
122.335858
 30
0.0
  0
VERTEX
  8
CSLAYER1
  6
CONTINUOUS
 62
     7
 10
135.255704
 20
122.489639
 30
0.0
  0
VERTEX
  8
CSLAYER1
  6
CONTINUOUS
 62
     7
 10
135.221600
 20
122.639863
 30
0.0
  0
VERTEX
  8
CSLAYER1
  6
CONTINUOUS
 62
     7
 10
135.178200
 20
122.785388
 30
0.0
  0
VERTEX
  8
CSLAYER1
  6
CONTINUOUS
 62
     7
 10
135.125833
 20
122.925105
 30
0.0
  0
VERTEX
  8
CSLAYER1
  6
CONTINUOUS
 62
     7
 10
135.064898
 20
123.057951
 30
0.0
  0
VERTEX
  8
CSLAYER1
  6
CONTINUOUS
 62
     7
 10
134.995858
 20
123.182916
 30
0.0
  0
VERTEX
  8
CSLAYER1
  6
CONTINUOUS
 62
     7
 10
134.919239
 20
123.299048
 30
0.0
  0
VERTEX
  8
CSLAYER1
  6
CONTINUOUS
 62
     7
 10
134.835624
 20
123.405463
 30
0.0
  0
VERTEX
  8
CSLAYER1
  6
CONTINUOUS
 62
     7
 10
134.745649
 20
123.501352
 30
0.0
  0
VERTEX
  8
CSLAYER1
  6
CONTINUOUS
 62
     7
 10
134.650000
 20
123.585984
 30
0.0
  0
VERTEX
  8
CSLAYER1
  6
CONTINUOUS
 62
     7
 10
134.549404
 20
123.658716
 30
0.0
  0
VERTEX
  8
CSLAYER1
  6
CONTINUOUS
 62
     7
 10
134.444626
 20
123.718994
 30
0.0
  0
VERTEX
  8
CSLAYER1
  6
CONTINUOUS
 62
     7
 10
134.336465
 20
123.766360
 30
0.0
  0
VERTEX
  8
CSLAYER1
  6
CONTINUOUS
 62
     7
 10
134.225743
 20
123.800452
 30
0.0
  0
VERTEX
  8
CSLAYER1
  6
CONTINUOUS
 62
     7
 10
134.113302
 20
123.821012
 30
0.0
  0
VERTEX
  8
CSLAYER1
  6
CONTINUOUS
 62
     7
 10
134.000000
 20
123.827883
 30
0.0
  0
SEQEND
  0
ARC
  8
CSLAYER1
  6
CONTINUOUS
 62
     3
 10
135.011111
 20
117.022327
 40
1.805556
 50
109.000802
 51
250.999198
  0
POLYLINE
  8
CSLAYER1
  6
CONTINUOUS
 62
     7
 66
     1
 10
0.0
 20
0.0
 30
0.0
  0
VERTEX
  8
CSLAYER1
  6
CONTINUOUS
 62
     7
 10
134.000000
 20
118.827883
 30
0.0
  0
VERTEX
  8
CSLAYER1
  6
CONTINUOUS
 62
     7
 10
133.886698
 20
118.821012
 30
0.0
  0
VERTEX
  8
CSLAYER1
  6
CONTINUOUS
 62
     7
 10
133.774257
 20
118.800452
 30
0.0
  0
VERTEX
  8
CSLAYER1
  6
CONTINUOUS
 62
     7
 10
133.663535
 20
118.766360
 30
0.0
  0
VERTEX
  8
CSLAYER1
  6
CONTINUOUS
 62
     7
 10
133.555374
 20
118.718994
 30
0.0
  0
VERTEX
  8
CSLAYER1
  6
CONTINUOUS
 62
     7
 10
133.450596
 20
118.658716
 30
0.0
  0
VERTEX
  8
CSLAYER1
  6
CONTINUOUS
 62
     7
 10
133.350000
 20
118.585984
 30
0.0
  0
VERTEX
  8
CSLAYER1
  6
CONTINUOUS
 62
     7
 10
133.254351
 20
118.501352
 30
0.0
  0
VERTEX
  8
CSLAYER1
  6
CONTINUOUS
 62
     7
 10
133.164376
 20
118.405463
 30
0.0
  0
VERTEX
  8
CSLAYER1
  6
CONTINUOUS
 62
     7
 10
133.080761
 20
118.299048
 30
0.0
  0
VERTEX
  8
CSLAYER1
  6
CONTINUOUS
 62
     7
 10
133.004142
 20
118.182916
 30
0.0
  0
VERTEX
  8
CSLAYER1
  6
CONTINUOUS
 62
     7
 10
132.935102
 20
118.057951
 30
0.0
  0
VERTEX
  8
CSLAYER1
  6
CONTINUOUS
 62
     7
 10
132.874167
 20
117.925105
 30
0.0
  0
VERTEX
  8
CSLAYER1
  6
CONTINUOUS
 62
     7
 10
132.821800
 20
117.785388
 30
0.0
  0
VERTEX
  8
CSLAYER1
  6
CONTINUOUS
 62
     7
 10
132.778400
 20
117.639863
 30
0.0
  0
VERTEX
  8
CSLAYER1
  6
CONTINUOUS
 62
     7
 10
132.744296
 20
117.489639
 30
0.0
  0
VERTEX
  8
CSLAYER1
  6
CONTINUOUS
 62
     7
 10
132.719750
 20
117.335858
 30
0.0
  0
VERTEX
  8
CSLAYER1
  6
CONTINUOUS
 62
     7
 10
132.704947
 20
117.179692
 30
0.0
  0
VERTEX
  8
CSLAYER1
  6
CONTINUOUS
 62
     7
 10
132.700000
 20
117.022327
 30
0.0
  0
VERTEX
  8
CSLAYER1
  6
CONTINUOUS
 62
     7
 10
132.704947
 20
116.864962
 30
0.0
  0
VERTEX
  8
CSLAYER1
  6
CONTINUOUS
 62
     7
 10
132.719750
 20
116.708796
 30
0.0
  0
VERTEX
  8
CSLAYER1
  6
CONTINUOUS
 62
     7
 10
132.744296
 20
116.555015
 30
0.0
  0
VERTEX
  8
CSLAYER1
  6
CONTINUOUS
 62
     7
 10
132.778400
 20
116.404791
 30
0.0
  0
VERTEX
  8
CSLAYER1
  6
CONTINUOUS
 62
     7
 10
132.821800
 20
116.259266
 30
0.0
  0
VERTEX
  8
CSLAYER1
  6
CONTINUOUS
 62
     7
 10
132.874167
 20
116.119549
 30
0.0
  0
VERTEX
  8
CSLAYER1
  6
CONTINUOUS
 62
     7
 10
132.935102
 20
115.986703
 30
0.0
  0
VERTEX
  8
CSLAYER1
  6
CONTINUOUS
 62
     7
 10
133.004142
 20
115.861738
 30
0.0
  0
VERTEX
  8
CSLAYER1
  6
CONTINUOUS
 62
     7
 10
133.080761
 20
115.745606
 30
0.0
  0
VERTEX
  8
CSLAYER1
  6
CONTINUOUS
 62
     7
 10
133.164376
 20
115.639191
 30
0.0
  0
VERTEX
  8
CSLAYER1
  6
CONTINUOUS
 62
     7
 10
133.254351
 20
115.543302
 30
0.0
  0
VERTEX
  8
CSLAYER1
  6
CONTINUOUS
 62
     7
 10
133.350000
 20
115.458670
 30
0.0
  0
VERTEX
  8
CSLAYER1
  6
CONTINUOUS
 62
     7
 10
133.450596
 20
115.385938
 30
0.0
  0
VERTEX
  8
CSLAYER1
  6
CONTINUOUS
 62
     7
 10
133.555374
 20
115.325660
 30
0.0
  0
VERTEX
  8
CSLAYER1
  6
CONTINUOUS
 62
     7
 10
133.663535
 20
115.278294
 30
0.0
  0
VERTEX
  8
CSLAYER1
  6
CONTINUOUS
 62
     7
 10
133.774257
 20
115.244202
 30
0.0
  0
VERTEX
  8
CSLAYER1
  6
CONTINUOUS
 62
     7
 10
133.886698
 20
115.223642
 30
0.0
  0
VERTEX
  8
CSLAYER1
  6
CONTINUOUS
 62
     7
 10
134.000000
 20
115.216771
 30
0.0
  0
VERTEX
  8
CSLAYER1
  6
CONTINUOUS
 62
     7
 10
134.113302
 20
115.223642
 30
0.0
  0
VERTEX
  8
CSLAYER1
  6
CONTINUOUS
 62
     7
 10
134.225743
 20
115.244202
 30
0.0
  0
VERTEX
  8
CSLAYER1
  6
CONTINUOUS
 62
     7
 10
134.336465
 20
115.278294
 30
0.0
  0
VERTEX
  8
CSLAYER1
  6
CONTINUOUS
 62
     7
 10
134.444626
 20
115.325660
 30
0.0
  0
VERTEX
  8
CSLAYER1
  6
CONTINUOUS
 62
     7
 10
134.549404
 20
115.385938
 30
0.0
  0
VERTEX
  8
CSLAYER1
  6
CONTINUOUS
 62
     7
 10
134.650000
 20
115.458670
 30
0.0
  0
VERTEX
  8
CSLAYER1
  6
CONTINUOUS
 62
     7
 10
134.745649
 20
115.543302
 30
0.0
  0
VERTEX
  8
CSLAYER1
  6
CONTINUOUS
 62
     7
 10
134.835624
 20
115.639191
 30
0.0
  0
VERTEX
  8
CSLAYER1
  6
CONTINUOUS
 62
     7
 10
134.919239
 20
115.745606
 30
0.0
  0
VERTEX
  8
CSLAYER1
  6
CONTINUOUS
 62
     7
 10
134.995858
 20
115.861738
 30
0.0
  0
VERTEX
  8
CSLAYER1
  6
CONTINUOUS
 62
     7
 10
135.064898
 20
115.986703
 30
0.0
  0
VERTEX
  8
CSLAYER1
  6
CONTINUOUS
 62
     7
 10
135.125833
 20
116.119549
 30
0.0
  0
VERTEX
  8
CSLAYER1
  6
CONTINUOUS
 62
     7
 10
135.178200
 20
116.259266
 30
0.0
  0
VERTEX
  8
CSLAYER1
  6
CONTINUOUS
 62
     7
 10
135.221600
 20
116.404791
 30
0.0
  0
VERTEX
  8
CSLAYER1
  6
CONTINUOUS
 62
     7
 10
135.255704
 20
116.555015
 30
0.0
  0
VERTEX
  8
CSLAYER1
  6
CONTINUOUS
 62
     7
 10
135.280250
 20
116.708796
 30
0.0
  0
VERTEX
  8
CSLAYER1
  6
CONTINUOUS
 62
     7
 10
135.295053
 20
116.864962
 30
0.0
  0
VERTEX
  8
CSLAYER1
  6
CONTINUOUS
 62
     7
 10
135.300000
 20
117.022327
 30
0.0
  0
VERTEX
  8
CSLAYER1
  6
CONTINUOUS
 62
     7
 10
135.295053
 20
117.179692
 30
0.0
  0
VERTEX
  8
CSLAYER1
  6
CONTINUOUS
 62
     7
 10
135.280250
 20
117.335858
 30
0.0
  0
VERTEX
  8
CSLAYER1
  6
CONTINUOUS
 62
     7
 10
135.255704
 20
117.489639
 30
0.0
  0
VERTEX
  8
CSLAYER1
  6
CONTINUOUS
 62
     7
 10
135.221600
 20
117.639863
 30
0.0
  0
VERTEX
  8
CSLAYER1
  6
CONTINUOUS
 62
     7
 10
135.178200
 20
117.785388
 30
0.0
  0
VERTEX
  8
CSLAYER1
  6
CONTINUOUS
 62
     7
 10
135.125833
 20
117.925105
 30
0.0
  0
VERTEX
  8
CSLAYER1
  6
CONTINUOUS
 62
     7
 10
135.064898
 20
118.057951
 30
0.0
  0
VERTEX
  8
CSLAYER1
  6
CONTINUOUS
 62
     7
 10
134.995858
 20
118.182916
 30
0.0
  0
VERTEX
  8
CSLAYER1
  6
CONTINUOUS
 62
     7
 10
134.919239
 20
118.299048
 30
0.0
  0
VERTEX
  8
CSLAYER1
  6
CONTINUOUS
 62
     7
 10
134.835624
 20
118.405463
 30
0.0
  0
VERTEX
  8
CSLAYER1
  6
CONTINUOUS
 62
     7
 10
134.745649
 20
118.501352
 30
0.0
  0
VERTEX
  8
CSLAYER1
  6
CONTINUOUS
 62
     7
 10
134.650000
 20
118.585984
 30
0.0
  0
VERTEX
  8
CSLAYER1
  6
CONTINUOUS
 62
     7
 10
134.549404
 20
118.658716
 30
0.0
  0
VERTEX
  8
CSLAYER1
  6
CONTINUOUS
 62
     7
 10
134.444626
 20
118.718994
 30
0.0
  0
VERTEX
  8
CSLAYER1
  6
CONTINUOUS
 62
     7
 10
134.336465
 20
118.766360
 30
0.0
  0
VERTEX
  8
CSLAYER1
  6
CONTINUOUS
 62
     7
 10
134.225743
 20
118.800452
 30
0.0
  0
VERTEX
  8
CSLAYER1
  6
CONTINUOUS
 62
     7
 10
134.113302
 20
118.821012
 30
0.0
  0
VERTEX
  8
CSLAYER1
  6
CONTINUOUS
 62
     7
 10
134.000000
 20
118.827883
 30
0.0
  0
SEQEND
  0
ARC
  8
CSLAYER1
  6
CONTINUOUS
 62
     3
 10
135.011111
 20
112.022327
 40
1.805556
 50
109.000802
 51
250.999198
  0
POLYLINE
  8
CSLAYER1
  6
CONTINUOUS
 62
     7
 66
     1
 10
0.0
 20
0.0
 30
0.0
  0
VERTEX
  8
CSLAYER1
  6
CONTINUOUS
 62
     7
 10
134.000000
 20
113.827883
 30
0.0
  0
VERTEX
  8
CSLAYER1
  6
CONTINUOUS
 62
     7
 10
133.886698
 20
113.821012
 30
0.0
  0
VERTEX
  8
CSLAYER1
  6
CONTINUOUS
 62
     7
 10
133.774257
 20
113.800452
 30
0.0
  0
VERTEX
  8
CSLAYER1
  6
CONTINUOUS
 62
     7
 10
133.663535
 20
113.766360
 30
0.0
  0
VERTEX
  8
CSLAYER1
  6
CONTINUOUS
 62
     7
 10
133.555374
 20
113.718994
 30
0.0
  0
VERTEX
  8
CSLAYER1
  6
CONTINUOUS
 62
     7
 10
133.450596
 20
113.658716
 30
0.0
  0
VERTEX
  8
CSLAYER1
  6
CONTINUOUS
 62
     7
 10
133.350000
 20
113.585984
 30
0.0
  0
VERTEX
  8
CSLAYER1
  6
CONTINUOUS
 62
     7
 10
133.254351
 20
113.501352
 30
0.0
  0
VERTEX
  8
CSLAYER1
  6
CONTINUOUS
 62
     7
 10
133.164376
 20
113.405463
 30
0.0
  0
VERTEX
  8
CSLAYER1
  6
CONTINUOUS
 62
     7
 10
133.080761
 20
113.299048
 30
0.0
  0
VERTEX
  8
CSLAYER1
  6
CONTINUOUS
 62
     7
 10
133.004142
 20
113.182916
 30
0.0
  0
VERTEX
  8
CSLAYER1
  6
CONTINUOUS
 62
     7
 10
132.935102
 20
113.057951
 30
0.0
  0
VERTEX
  8
CSLAYER1
  6
CONTINUOUS
 62
     7
 10
132.874167
 20
112.925105
 30
0.0
  0
VERTEX
  8
CSLAYER1
  6
CONTINUOUS
 62
     7
 10
132.821800
 20
112.785388
 30
0.0
  0
VERTEX
  8
CSLAYER1
  6
CONTINUOUS
 62
     7
 10
132.778400
 20
112.639863
 30
0.0
  0
VERTEX
  8
CSLAYER1
  6
CONTINUOUS
 62
     7
 10
132.744296
 20
112.489639
 30
0.0
  0
VERTEX
  8
CSLAYER1
  6
CONTINUOUS
 62
     7
 10
132.719750
 20
112.335858
 30
0.0
  0
VERTEX
  8
CSLAYER1
  6
CONTINUOUS
 62
     7
 10
132.704947
 20
112.179692
 30
0.0
  0
VERTEX
  8
CSLAYER1
  6
CONTINUOUS
 62
     7
 10
132.700000
 20
112.022327
 30
0.0
  0
VERTEX
  8
CSLAYER1
  6
CONTINUOUS
 62
     7
 10
132.704947
 20
111.864962
 30
0.0
  0
VERTEX
  8
CSLAYER1
  6
CONTINUOUS
 62
     7
 10
132.719750
 20
111.708796
 30
0.0
  0
VERTEX
  8
CSLAYER1
  6
CONTINUOUS
 62
     7
 10
132.744296
 20
111.555015
 30
0.0
  0
VERTEX
  8
CSLAYER1
  6
CONTINUOUS
 62
     7
 10
132.778400
 20
111.404791
 30
0.0
  0
VERTEX
  8
CSLAYER1
  6
CONTINUOUS
 62
     7
 10
132.821800
 20
111.259266
 30
0.0
  0
VERTEX
  8
CSLAYER1
  6
CONTINUOUS
 62
     7
 10
132.874167
 20
111.119549
 30
0.0
  0
VERTEX
  8
CSLAYER1
  6
CONTINUOUS
 62
     7
 10
132.935102
 20
110.986703
 30
0.0
  0
VERTEX
  8
CSLAYER1
  6
CONTINUOUS
 62
     7
 10
133.004142
 20
110.861738
 30
0.0
  0
VERTEX
  8
CSLAYER1
  6
CONTINUOUS
 62
     7
 10
133.080761
 20
110.745606
 30
0.0
  0
VERTEX
  8
CSLAYER1
  6
CONTINUOUS
 62
     7
 10
133.164376
 20
110.639191
 30
0.0
  0
VERTEX
  8
CSLAYER1
  6
CONTINUOUS
 62
     7
 10
133.254351
 20
110.543302
 30
0.0
  0
VERTEX
  8
CSLAYER1
  6
CONTINUOUS
 62
     7
 10
133.350000
 20
110.458670
 30
0.0
  0
VERTEX
  8
CSLAYER1
  6
CONTINUOUS
 62
     7
 10
133.450596
 20
110.385938
 30
0.0
  0
VERTEX
  8
CSLAYER1
  6
CONTINUOUS
 62
     7
 10
133.555374
 20
110.325660
 30
0.0
  0
VERTEX
  8
CSLAYER1
  6
CONTINUOUS
 62
     7
 10
133.663535
 20
110.278294
 30
0.0
  0
VERTEX
  8
CSLAYER1
  6
CONTINUOUS
 62
     7
 10
133.774257
 20
110.244202
 30
0.0
  0
VERTEX
  8
CSLAYER1
  6
CONTINUOUS
 62
     7
 10
133.886698
 20
110.223642
 30
0.0
  0
VERTEX
  8
CSLAYER1
  6
CONTINUOUS
 62
     7
 10
134.000000
 20
110.216771
 30
0.0
  0
VERTEX
  8
CSLAYER1
  6
CONTINUOUS
 62
     7
 10
134.113302
 20
110.223642
 30
0.0
  0
VERTEX
  8
CSLAYER1
  6
CONTINUOUS
 62
     7
 10
134.225743
 20
110.244202
 30
0.0
  0
VERTEX
  8
CSLAYER1
  6
CONTINUOUS
 62
     7
 10
134.336465
 20
110.278294
 30
0.0
  0
VERTEX
  8
CSLAYER1
  6
CONTINUOUS
 62
     7
 10
134.444626
 20
110.325660
 30
0.0
  0
VERTEX
  8
CSLAYER1
  6
CONTINUOUS
 62
     7
 10
134.549404
 20
110.385938
 30
0.0
  0
VERTEX
  8
CSLAYER1
  6
CONTINUOUS
 62
     7
 10
134.650000
 20
110.458670
 30
0.0
  0
VERTEX
  8
CSLAYER1
  6
CONTINUOUS
 62
     7
 10
134.745649
 20
110.543302
 30
0.0
  0
VERTEX
  8
CSLAYER1
  6
CONTINUOUS
 62
     7
 10
134.835624
 20
110.639191
 30
0.0
  0
VERTEX
  8
CSLAYER1
  6
CONTINUOUS
 62
     7
 10
134.919239
 20
110.745606
 30
0.0
  0
VERTEX
  8
CSLAYER1
  6
CONTINUOUS
 62
     7
 10
134.995858
 20
110.861738
 30
0.0
  0
VERTEX
  8
CSLAYER1
  6
CONTINUOUS
 62
     7
 10
135.064898
 20
110.986703
 30
0.0
  0
VERTEX
  8
CSLAYER1
  6
CONTINUOUS
 62
     7
 10
135.125833
 20
111.119549
 30
0.0
  0
VERTEX
  8
CSLAYER1
  6
CONTINUOUS
 62
     7
 10
135.178200
 20
111.259266
 30
0.0
  0
VERTEX
  8
CSLAYER1
  6
CONTINUOUS
 62
     7
 10
135.221600
 20
111.404791
 30
0.0
  0
VERTEX
  8
CSLAYER1
  6
CONTINUOUS
 62
     7
 10
135.255704
 20
111.555015
 30
0.0
  0
VERTEX
  8
CSLAYER1
  6
CONTINUOUS
 62
     7
 10
135.280250
 20
111.708796
 30
0.0
  0
VERTEX
  8
CSLAYER1
  6
CONTINUOUS
 62
     7
 10
135.295053
 20
111.864962
 30
0.0
  0
VERTEX
  8
CSLAYER1
  6
CONTINUOUS
 62
     7
 10
135.300000
 20
112.022327
 30
0.0
  0
VERTEX
  8
CSLAYER1
  6
CONTINUOUS
 62
     7
 10
135.295053
 20
112.179692
 30
0.0
  0
VERTEX
  8
CSLAYER1
  6
CONTINUOUS
 62
     7
 10
135.280250
 20
112.335858
 30
0.0
  0
VERTEX
  8
CSLAYER1
  6
CONTINUOUS
 62
     7
 10
135.255704
 20
112.489639
 30
0.0
  0
VERTEX
  8
CSLAYER1
  6
CONTINUOUS
 62
     7
 10
135.221600
 20
112.639863
 30
0.0
  0
VERTEX
  8
CSLAYER1
  6
CONTINUOUS
 62
     7
 10
135.178200
 20
112.785388
 30
0.0
  0
VERTEX
  8
CSLAYER1
  6
CONTINUOUS
 62
     7
 10
135.125833
 20
112.925105
 30
0.0
  0
VERTEX
  8
CSLAYER1
  6
CONTINUOUS
 62
     7
 10
135.064898
 20
113.057951
 30
0.0
  0
VERTEX
  8
CSLAYER1
  6
CONTINUOUS
 62
     7
 10
134.995858
 20
113.182916
 30
0.0
  0
VERTEX
  8
CSLAYER1
  6
CONTINUOUS
 62
     7
 10
134.919239
 20
113.299048
 30
0.0
  0
VERTEX
  8
CSLAYER1
  6
CONTINUOUS
 62
     7
 10
134.835624
 20
113.405463
 30
0.0
  0
VERTEX
  8
CSLAYER1
  6
CONTINUOUS
 62
     7
 10
134.745649
 20
113.501352
 30
0.0
  0
VERTEX
  8
CSLAYER1
  6
CONTINUOUS
 62
     7
 10
134.650000
 20
113.585984
 30
0.0
  0
VERTEX
  8
CSLAYER1
  6
CONTINUOUS
 62
     7
 10
134.549404
 20
113.658716
 30
0.0
  0
VERTEX
  8
CSLAYER1
  6
CONTINUOUS
 62
     7
 10
134.444626
 20
113.718994
 30
0.0
  0
VERTEX
  8
CSLAYER1
  6
CONTINUOUS
 62
     7
 10
134.336465
 20
113.766360
 30
0.0
  0
VERTEX
  8
CSLAYER1
  6
CONTINUOUS
 62
     7
 10
134.225743
 20
113.800452
 30
0.0
  0
VERTEX
  8
CSLAYER1
  6
CONTINUOUS
 62
     7
 10
134.113302
 20
113.821012
 30
0.0
  0
VERTEX
  8
CSLAYER1
  6
CONTINUOUS
 62
     7
 10
134.000000
 20
113.827883
 30
0.0
  0
SEQEND
  0
LINE
  8
CSLAYER1
  6
CONTINUOUS
 62
     3
 10
134.976666
 20
153.213961
 11
133.622438
 21
150.868370
  0
LINE
  8
CSLAYER1
  6
CONTINUOUS
 62
     3
 10
134.976666
 20
148.213961
 11
133.622438
 21
145.868370
  0
LINE
  8
CSLAYER1
  6
CONTINUOUS
 62
     3
 10
134.976666
 20
143.213961
 11
133.622438
 21
140.868370
  0
LINE
  8
CSLAYER1
  6
CONTINUOUS
 62
     3
 10
134.976666
 20
138.213961
 11
133.622438
 21
135.868370
  0
LINE
  8
CSLAYER1
  6
CONTINUOUS
 62
     3
 10
134.976666
 20
133.213961
 11
133.622438
 21
130.868370
  0
LINE
  8
CSLAYER1
  6
CONTINUOUS
 62
     3
 10
134.976666
 20
128.213961
 11
133.622438
 21
125.868370
  0
LINE
  8
CSLAYER1
  6
CONTINUOUS
 62
     3
 10
134.976666
 20
123.213961
 11
133.622438
 21
120.868370
  0
LINE
  8
CSLAYER1
  6
CONTINUOUS
 62
     3
 10
134.976666
 20
118.213961
 11
133.622438
 21
115.868370
  0
LINE
  8
CSLAYER1
  6
CONTINUOUS
 62
     3
 10
134.976666
 20
113.213961
 11
133.622438
 21
110.868370
  0
LINE
  8
CSLAYER1
  6
CONTINUOUS
 62
     3
 10
139.601152
 20
194.622327
 11
139.601152
 21
187.222327
  0
LINE
  8
CSLAYER1
  6
CONTINUOUS
 62
     3
 10
138.967350
 20
194.622327
 11
138.967350
 21
187.222327
  0
LINE
  8
CSLAYER1
  6
CONTINUOUS
 62
     6
 10
143.500000
 20
187.222327
 11
134.530730
 21
187.222327
  0
LINE
  8
CSLAYER1
  6
CONTINUOUS
 62
     6
 10
143.500000
 20
186.222327
 11
134.530730
 21
186.222327
  0
ARC
  8
CSLAYER1
  6
CONTINUOUS
 62
     6
 10
143.044968
 20
190.922313
 40
6.637945
 50
163.742984
 51
196.257006
  0
LINE
  8
CSLAYER1
  6
CONTINUOUS
 62
     6
 10
138.097358
 20
188.332592
 11
137.500112
 21
188.384842
  0
ARC
  8
CSLAYER1
  6
CONTINUOUS
 62
     6
 10
137.582762
 20
189.329517
 40
0.948278
 50
196.257389
 51
264.999889
  0
LINE
  8
CSLAYER1
  6
CONTINUOUS
 62
     6
 10
138.097358
 20
193.512033
 11
137.500112
 21
193.459783
  0
ARC
  8
CSLAYER1
  6
CONTINUOUS
 62
     6
 10
137.582762
 20
192.515109
 40
0.948278
 50
95.000108
 51
163.742601
  0
LINE
  8
CSLAYER1
  6
CONTINUOUS
 62
     3
 10
138.303578
 20
188.267175
 11
138.303578
 21
193.577508
  0
ARC
  8
CSLAYER1
  6
CONTINUOUS
 62
     6
 10
138.113911
 20
193.323133
 40
0.189656
 50
0.000000
 51
95.000152
  0
LINE
  8
CSLAYER1
  6
CONTINUOUS
 62
     3
 10
138.398383
 20
193.672341
 11
138.872522
 21
193.672341
  0
ARC
  8
CSLAYER1
  6
CONTINUOUS
 62
     3
 10
138.398383
 20
193.577508
 40
0.094828
 50
90.000003
 51
180.000005
  0
ARC
  8
CSLAYER1
  6
CONTINUOUS
 62
     3
 10
138.872522
 20
193.577508
 40
0.094828
 50
0.000000
 51
90.000003
  0
ARC
  8
CSLAYER1
  6
CONTINUOUS
 62
     6
 10
138.113911
 20
188.521550
 40
0.189656
 50
264.999865
 51
359.942691
  0
ARC
  8
CSLAYER1
  6
CONTINUOUS
 62
     3
 10
138.398383
 20
188.267175
 40
0.094828
 50
180.000005
 51
270.000001
  0
LINE
  8
CSLAYER1
  6
CONTINUOUS
 62
     3
 10
138.398383
 20
188.172341
 11
138.872522
 21
188.172341
  0
ARC
  8
CSLAYER1
  6
CONTINUOUS
 62
     3
 10
138.872522
 20
188.267175
 40
0.094828
 50
270.000001
 51
359.942691
  0
LINE
  8
CSLAYER1
  6
CONTINUOUS
 62
     3
 10
138.303578
 20
190.357232
 11
138.967355
 21
190.778138
  0
LINE
  8
CSLAYER1
  6
CONTINUOUS
 62
     3
 10
138.303578
 20
190.831371
 11
138.967355
 21
191.252277
  0
LINE
  8
CSLAYER1
  6
CONTINUOUS
 62
     3
 10
139.601152
 20
186.222327
 11
139.601152
 21
178.822327
  0
LINE
  8
CSLAYER1
  6
CONTINUOUS
 62
     3
 10
138.967350
 20
186.222327
 11
138.967350
 21
178.822327
  0
LINE
  8
CSLAYER1
  6
CONTINUOUS
 62
     6
 10
143.500000
 20
178.822327
 11
134.530730
 21
178.822327
  0
LINE
  8
CSLAYER1
  6
CONTINUOUS
 62
     6
 10
143.500000
 20
177.822327
 11
134.530730
 21
177.822327
  0
ARC
  8
CSLAYER1
  6
CONTINUOUS
 62
     6
 10
143.044968
 20
182.522313
 40
6.637945
 50
163.742984
 51
196.257006
  0
LINE
  8
CSLAYER1
  6
CONTINUOUS
 62
     6
 10
138.097358
 20
179.932592
 11
137.500112
 21
179.984842
  0
ARC
  8
CSLAYER1
  6
CONTINUOUS
 62
     6
 10
137.582762
 20
180.929517
 40
0.948278
 50
196.257389
 51
264.999889
  0
LINE
  8
CSLAYER1
  6
CONTINUOUS
 62
     6
 10
138.097358
 20
185.112033
 11
137.500112
 21
185.059783
  0
ARC
  8
CSLAYER1
  6
CONTINUOUS
 62
     6
 10
137.582762
 20
184.115109
 40
0.948278
 50
95.000108
 51
163.742601
  0
LINE
  8
CSLAYER1
  6
CONTINUOUS
 62
     3
 10
138.303578
 20
179.867175
 11
138.303578
 21
185.177508
  0
ARC
  8
CSLAYER1
  6
CONTINUOUS
 62
     6
 10
138.113911
 20
184.923133
 40
0.189656
 50
0.000000
 51
95.000152
  0
LINE
  8
CSLAYER1
  6
CONTINUOUS
 62
     3
 10
138.398383
 20
185.272341
 11
138.872522
 21
185.272341
  0
ARC
  8
CSLAYER1
  6
CONTINUOUS
 62
     3
 10
138.398383
 20
185.177508
 40
0.094828
 50
90.000003
 51
180.000005
  0
ARC
  8
CSLAYER1
  6
CONTINUOUS
 62
     3
 10
138.872522
 20
185.177508
 40
0.094828
 50
0.000000
 51
90.000003
  0
ARC
  8
CSLAYER1
  6
CONTINUOUS
 62
     6
 10
138.113911
 20
180.121550
 40
0.189656
 50
264.999865
 51
359.942691
  0
ARC
  8
CSLAYER1
  6
CONTINUOUS
 62
     3
 10
138.398383
 20
179.867175
 40
0.094828
 50
180.000005
 51
270.000001
  0
LINE
  8
CSLAYER1
  6
CONTINUOUS
 62
     3
 10
138.398383
 20
179.772341
 11
138.872522
 21
179.772341
  0
ARC
  8
CSLAYER1
  6
CONTINUOUS
 62
     3
 10
138.872522
 20
179.867175
 40
0.094828
 50
270.000001
 51
359.942691
  0
LINE
  8
CSLAYER1
  6
CONTINUOUS
 62
     3
 10
138.303578
 20
181.957232
 11
138.967355
 21
182.378138
  0
LINE
  8
CSLAYER1
  6
CONTINUOUS
 62
     3
 10
138.303578
 20
182.431371
 11
138.967355
 21
182.852277
  0
LINE
  8
CSLAYER1
  6
CONTINUOUS
 62
     3
 10
139.601152
 20
177.822327
 11
139.601152
 21
170.422327
  0
LINE
  8
CSLAYER1
  6
CONTINUOUS
 62
     3
 10
138.967350
 20
177.822327
 11
138.967350
 21
170.422327
  0
LINE
  8
CSLAYER1
  6
CONTINUOUS
 62
     6
 10
143.500000
 20
170.422327
 11
134.530730
 21
170.422327
  0
LINE
  8
CSLAYER1
  6
CONTINUOUS
 62
     6
 10
143.500000
 20
169.422327
 11
134.530730
 21
169.422327
  0
ARC
  8
CSLAYER1
  6
CONTINUOUS
 62
     6
 10
143.044968
 20
174.122313
 40
6.637945
 50
163.742984
 51
196.257006
  0
LINE
  8
CSLAYER1
  6
CONTINUOUS
 62
     6
 10
138.097358
 20
171.532592
 11
137.500112
 21
171.584842
  0
ARC
  8
CSLAYER1
  6
CONTINUOUS
 62
     6
 10
137.582762
 20
172.529517
 40
0.948278
 50
196.257389
 51
264.999889
  0
LINE
  8
CSLAYER1
  6
CONTINUOUS
 62
     6
 10
138.097358
 20
176.712033
 11
137.500112
 21
176.659783
  0
ARC
  8
CSLAYER1
  6
CONTINUOUS
 62
     6
 10
137.582762
 20
175.715109
 40
0.948278
 50
95.000108
 51
163.742601
  0
LINE
  8
CSLAYER1
  6
CONTINUOUS
 62
     3
 10
138.303578
 20
171.467175
 11
138.303578
 21
176.777508
  0
ARC
  8
CSLAYER1
  6
CONTINUOUS
 62
     6
 10
138.113911
 20
176.523133
 40
0.189656
 50
0.000000
 51
95.000152
  0
LINE
  8
CSLAYER1
  6
CONTINUOUS
 62
     3
 10
138.398383
 20
176.872341
 11
138.872522
 21
176.872341
  0
ARC
  8
CSLAYER1
  6
CONTINUOUS
 62
     3
 10
138.398383
 20
176.777508
 40
0.094828
 50
90.000003
 51
180.000005
  0
ARC
  8
CSLAYER1
  6
CONTINUOUS
 62
     3
 10
138.872522
 20
176.777508
 40
0.094828
 50
0.000000
 51
90.000003
  0
ARC
  8
CSLAYER1
  6
CONTINUOUS
 62
     6
 10
138.113911
 20
171.721550
 40
0.189656
 50
264.999865
 51
359.942691
  0
ARC
  8
CSLAYER1
  6
CONTINUOUS
 62
     3
 10
138.398383
 20
171.467175
 40
0.094828
 50
180.000005
 51
270.000001
  0
LINE
  8
CSLAYER1
  6
CONTINUOUS
 62
     3
 10
138.398383
 20
171.372341
 11
138.872522
 21
171.372341
  0
ARC
  8
CSLAYER1
  6
CONTINUOUS
 62
     3
 10
138.872522
 20
171.467175
 40
0.094828
 50
270.000001
 51
359.942691
  0
LINE
  8
CSLAYER1
  6
CONTINUOUS
 62
     3
 10
138.303578
 20
173.557232
 11
138.967355
 21
173.978138
  0
LINE
  8
CSLAYER1
  6
CONTINUOUS
 62
     3
 10
138.303578
 20
174.031371
 11
138.967355
 21
174.452277
  0
LINE
  8
CSLAYER1
  6
CONTINUOUS
 62
     3
 10
139.601152
 20
169.422327
 11
139.601152
 21
162.022327
  0
LINE
  8
CSLAYER1
  6
CONTINUOUS
 62
     3
 10
138.967350
 20
169.422327
 11
138.967350
 21
162.022327
  0
LINE
  8
CSLAYER1
  6
CONTINUOUS
 62
     6
 10
143.500000
 20
162.022327
 11
134.530730
 21
162.022327
  0
LINE
  8
CSLAYER1
  6
CONTINUOUS
 62
     6
 10
143.500000
 20
161.022327
 11
134.530730
 21
161.022327
  0
ARC
  8
CSLAYER1
  6
CONTINUOUS
 62
     6
 10
143.044968
 20
165.722313
 40
6.637945
 50
163.742984
 51
196.257006
  0
LINE
  8
CSLAYER1
  6
CONTINUOUS
 62
     6
 10
138.097358
 20
163.132592
 11
137.500112
 21
163.184842
  0
ARC
  8
CSLAYER1
  6
CONTINUOUS
 62
     6
 10
137.582762
 20
164.129517
 40
0.948278
 50
196.257389
 51
264.999889
  0
LINE
  8
CSLAYER1
  6
CONTINUOUS
 62
     6
 10
138.097358
 20
168.312033
 11
137.500112
 21
168.259783
  0
ARC
  8
CSLAYER1
  6
CONTINUOUS
 62
     6
 10
137.582762
 20
167.315109
 40
0.948278
 50
95.000108
 51
163.742601
  0
LINE
  8
CSLAYER1
  6
CONTINUOUS
 62
     3
 10
138.303578
 20
163.067175
 11
138.303578
 21
168.377508
  0
ARC
  8
CSLAYER1
  6
CONTINUOUS
 62
     6
 10
138.113911
 20
168.123133
 40
0.189656
 50
0.000000
 51
95.000152
  0
LINE
  8
CSLAYER1
  6
CONTINUOUS
 62
     3
 10
138.398383
 20
168.472341
 11
138.872522
 21
168.472341
  0
ARC
  8
CSLAYER1
  6
CONTINUOUS
 62
     3
 10
138.398383
 20
168.377508
 40
0.094828
 50
90.000003
 51
180.000005
  0
ARC
  8
CSLAYER1
  6
CONTINUOUS
 62
     3
 10
138.872522
 20
168.377508
 40
0.094828
 50
0.000000
 51
90.000003
  0
ARC
  8
CSLAYER1
  6
CONTINUOUS
 62
     6
 10
138.113911
 20
163.321550
 40
0.189656
 50
264.999865
 51
359.942691
  0
ARC
  8
CSLAYER1
  6
CONTINUOUS
 62
     3
 10
138.398383
 20
163.067175
 40
0.094828
 50
180.000005
 51
270.000001
  0
LINE
  8
CSLAYER1
  6
CONTINUOUS
 62
     3
 10
138.398383
 20
162.972341
 11
138.872522
 21
162.972341
  0
ARC
  8
CSLAYER1
  6
CONTINUOUS
 62
     3
 10
138.872522
 20
163.067175
 40
0.094828
 50
270.000001
 51
359.942691
  0
LINE
  8
CSLAYER1
  6
CONTINUOUS
 62
     3
 10
138.303578
 20
165.157232
 11
138.967355
 21
165.578138
  0
LINE
  8
CSLAYER1
  6
CONTINUOUS
 62
     3
 10
138.303578
 20
165.631371
 11
138.967355
 21
166.052277
  0
LINE
  8
CSLAYER1
  6
CONTINUOUS
 62
     6
 10
143.500000
 20
40.522327
 11
131.500000
 21
47.450530
  0
LINE
  8
CSLAYER1
  6
CONTINUOUS
 62
     6
 10
131.500000
 20
52.450530
 11
131.500000
 21
47.450530
  0
LINE
  8
CSLAYER1
  6
CONTINUOUS
 62
     6
 10
141.000000
 20
54.192200
 11
136.669873
 21
56.692200
  0
LINE
  8
CSLAYER1
  6
CONTINUOUS
 62
     6
 10
141.000000
 20
54.192200
 11
143.500000
 21
58.522327
  0
LINE
  8
CSLAYER1
  6
CONTINUOUS
 62
     6
 10
131.500000
 20
52.450530
 11
133.948929
 21
56.692200
  0
LINE
  8
CSLAYER1
  6
CONTINUOUS
 62
     6
 10
136.669873
 20
56.692200
 11
133.948929
 21
56.692200
  0
LINE
  8
CSLAYER1
  6
CONTINUOUS
 62
     6
 10
143.500000
 20
40.522327
 11
134.886927
 21
40.522327
  0
LINE
  8
CSLAYER1
  6
CONTINUOUS
 62
     6
 10
141.767949
 20
55.522327
 11
138.696152
 21
55.522327
  0
LINE
  8
CSLAYER1
  6
PHANTOM
 62
     3
 10
135.876927
 20
39.532327
 11
135.876927
 21
44.923510
  0
LINE
  8
CSLAYER1
  6
PHANTOM
 62
     3
 10
135.876927
 20
39.532327
 11
133.896927
 21
39.532327
  0
LINE
  8
CSLAYER1
  6
CONTINUOUS
 62
     6
 10
134.886927
 20
40.522327
 11
134.886927
 21
45.495087
  0
LINE
  8
CSLAYER1
  6
PHANTOM
 62
     3
 10
133.896927
 20
39.532327
 11
133.896927
 21
46.066664
  0
LINE
  8
CSLAYER1
  6
CONTINUOUS
 62
     6
 10
134.886927
 20
259.049567
 11
131.500000
 21
257.094124
  0
LINE
  8
CSLAYER1
  6
CONTINUOUS
 62
     6
 10
131.500000
 20
252.094124
 11
131.500000
 21
257.094124
  0
LINE
  8
CSLAYER1
  6
CONTINUOUS
 62
     6
 10
138.696152
 20
249.022327
 11
136.669873
 21
247.852454
  0
LINE
  8
CSLAYER1
  6
CONTINUOUS
 62
     6
 10
141.767949
 20
249.022327
 11
143.500000
 21
246.022327
  0
LINE
  8
CSLAYER1
  6
CONTINUOUS
 62
     6
 10
131.500000
 20
252.094124
 11
133.948929
 21
247.852454
  0
LINE
  8
CSLAYER1
  6
CONTINUOUS
 62
     6
 10
136.669873
 20
247.852454
 11
133.948929
 21
247.852454
  0
LINE
  8
CSLAYER1
  6
CONTINUOUS
 62
     6
 10
143.500000
 20
264.022327
 11
134.886927
 21
264.022327
  0
LINE
  8
CSLAYER1
  6
CONTINUOUS
 62
     6
 10
143.500000
 20
249.022327
 11
134.886927
 21
249.022327
  0
LINE
  8
CSLAYER1
  6
PHANTOM
 62
     3
 10
135.876927
 20
265.012327
 11
135.876927
 21
248.032327
  0
LINE
  8
CSLAYER1
  6
PHANTOM
 62
     3
 10
135.876927
 20
265.012327
 11
133.896927
 21
265.012327
  0
LINE
  8
CSLAYER1
  6
CONTINUOUS
 62
     6
 10
134.886927
 20
264.022327
 11
134.886927
 21
249.022327
  0
LINE
  8
CSLAYER1
  6
PHANTOM
 62
     3
 10
133.896927
 20
265.012327
 11
133.896927
 21
248.032327
  0
LINE
  8
CSLAYER1
  6
PHANTOM
 62
     3
 10
135.876927
 20
248.032327
 11
133.896927
 21
248.032327
  0
LINE
  8
CSLAYER1
  6
CONTINUOUS
 62
     6
 10
288.000000
 20
276.022327
 11
288.000000
 21
237.522327
  0
LINE
  8
CSLAYER1
  6
CONTINUOUS
 62
     6
 10
286.500000
 20
276.022327
 11
286.500000
 21
235.585835
  0
LINE
  8
CSLAYER1
  6
CONTINUOUS
 62
     6
 10
144.500000
 20
275.022327
 11
144.500000
 21
235.522327
  0
LINE
  8
CSLAYER1
  6
CONTINUOUS
 62
     6
 10
144.500000
 20
235.522327
 11
286.000000
 21
235.522327
  0
ARC
  8
CSLAYER1
  6
CONTINUOUS
 62
     6
 10
286.000000
 20
237.522327
 40
2.000000
 50
270.000000
 51
360.000000
  0
LINE
  8
CSLAYER1
  6
CONTINUOUS
 62
     7
 10
179.000000
 20
243.522327
 11
179.000000
 21
270.522327
  0
LINE
  8
CSLAYER1
  6
CONTINUOUS
 62
     7
 10
182.000000
 20
243.522327
 11
182.000000
 21
270.522327
  0
ARC
  8
CSLAYER1
  6
CONTINUOUS
 62
     7
 10
180.500000
 20
270.522327
 40
1.500000
 50
-0.000000
 51
180.000000
  0
ARC
  8
CSLAYER1
  6
CONTINUOUS
 62
     7
 10
180.500000
 20
243.522327
 40
1.500000
 50
180.000000
 51
360.000000
  0
LINE
  8
CSLAYER1
  6
CONTINUOUS
 62
     7
 10
185.000000
 20
243.522327
 11
185.000000
 21
270.522327
  0
LINE
  8
CSLAYER1
  6
CONTINUOUS
 62
     7
 10
188.000000
 20
243.522327
 11
188.000000
 21
270.522327
  0
ARC
  8
CSLAYER1
  6
CONTINUOUS
 62
     7
 10
186.500000
 20
270.522327
 40
1.500000
 50
-0.000000
 51
180.000000
  0
ARC
  8
CSLAYER1
  6
CONTINUOUS
 62
     7
 10
186.500000
 20
243.522327
 40
1.500000
 50
180.000000
 51
360.000000
  0
LINE
  8
CSLAYER1
  6
CONTINUOUS
 62
     7
 10
191.000000
 20
243.522327
 11
191.000000
 21
270.522327
  0
LINE
  8
CSLAYER1
  6
CONTINUOUS
 62
     7
 10
194.000000
 20
243.522327
 11
194.000000
 21
270.522327
  0
ARC
  8
CSLAYER1
  6
CONTINUOUS
 62
     7
 10
192.500000
 20
270.522327
 40
1.500000
 50
-0.000000
 51
180.000000
  0
ARC
  8
CSLAYER1
  6
CONTINUOUS
 62
     7
 10
192.500000
 20
243.522327
 40
1.500000
 50
180.000000
 51
360.000000
  0
LINE
  8
CSLAYER1
  6
CONTINUOUS
 62
     7
 10
197.000000
 20
243.522327
 11
197.000000
 21
270.522327
  0
LINE
  8
CSLAYER1
  6
CONTINUOUS
 62
     7
 10
200.000000
 20
243.522327
 11
200.000000
 21
270.522327
  0
ARC
  8
CSLAYER1
  6
CONTINUOUS
 62
     7
 10
198.500000
 20
270.522327
 40
1.500000
 50
-0.000000
 51
180.000000
  0
ARC
  8
CSLAYER1
  6
CONTINUOUS
 62
     7
 10
198.500000
 20
243.522327
 40
1.500000
 50
180.000000
 51
360.000000
  0
LINE
  8
CSLAYER1
  6
CONTINUOUS
 62
     7
 10
203.000000
 20
243.522327
 11
203.000000
 21
270.522327
  0
LINE
  8
CSLAYER1
  6
CONTINUOUS
 62
     7
 10
206.000000
 20
243.522327
 11
206.000000
 21
270.522327
  0
ARC
  8
CSLAYER1
  6
CONTINUOUS
 62
     7
 10
204.500000
 20
270.522327
 40
1.500000
 50
-0.000000
 51
180.000000
  0
ARC
  8
CSLAYER1
  6
CONTINUOUS
 62
     7
 10
204.500000
 20
243.522327
 40
1.500000
 50
180.000000
 51
360.000000
  0
LINE
  8
CSLAYER1
  6
CONTINUOUS
 62
     7
 10
209.000000
 20
243.522327
 11
209.000000
 21
270.522327
  0
LINE
  8
CSLAYER1
  6
CONTINUOUS
 62
     7
 10
212.000000
 20
243.522327
 11
212.000000
 21
270.522327
  0
ARC
  8
CSLAYER1
  6
CONTINUOUS
 62
     7
 10
210.500000
 20
270.522327
 40
1.500000
 50
-0.000000
 51
180.000000
  0
ARC
  8
CSLAYER1
  6
CONTINUOUS
 62
     7
 10
210.500000
 20
243.522327
 40
1.500000
 50
180.000000
 51
360.000000
  0
LINE
  8
CSLAYER1
  6
CONTINUOUS
 62
     7
 10
215.000000
 20
243.522327
 11
215.000000
 21
270.522327
  0
LINE
  8
CSLAYER1
  6
CONTINUOUS
 62
     7
 10
218.000000
 20
243.522327
 11
218.000000
 21
270.522327
  0
ARC
  8
CSLAYER1
  6
CONTINUOUS
 62
     7
 10
216.500000
 20
270.522327
 40
1.500000
 50
-0.000000
 51
180.000000
  0
ARC
  8
CSLAYER1
  6
CONTINUOUS
 62
     7
 10
216.500000
 20
243.522327
 40
1.500000
 50
180.000000
 51
360.000000
  0
LINE
  8
CSLAYER1
  6
CONTINUOUS
 62
     7
 10
221.000000
 20
243.522327
 11
221.000000
 21
270.522327
  0
LINE
  8
CSLAYER1
  6
CONTINUOUS
 62
     7
 10
224.000000
 20
243.522327
 11
224.000000
 21
270.522327
  0
ARC
  8
CSLAYER1
  6
CONTINUOUS
 62
     7
 10
222.500000
 20
270.522327
 40
1.500000
 50
-0.000000
 51
180.000000
  0
ARC
  8
CSLAYER1
  6
CONTINUOUS
 62
     7
 10
222.500000
 20
243.522327
 40
1.500000
 50
180.000000
 51
360.000000
  0
LINE
  8
CSLAYER1
  6
CONTINUOUS
 62
     7
 10
227.000000
 20
243.522327
 11
227.000000
 21
270.522327
  0
LINE
  8
CSLAYER1
  6
CONTINUOUS
 62
     7
 10
230.000000
 20
243.522327
 11
230.000000
 21
270.522327
  0
ARC
  8
CSLAYER1
  6
CONTINUOUS
 62
     7
 10
228.500000
 20
270.522327
 40
1.500000
 50
-0.000000
 51
180.000000
  0
ARC
  8
CSLAYER1
  6
CONTINUOUS
 62
     7
 10
228.500000
 20
243.522327
 40
1.500000
 50
180.000000
 51
360.000000
  0
LINE
  8
CSLAYER1
  6
CONTINUOUS
 62
     7
 10
233.000000
 20
243.522327
 11
233.000000
 21
270.522327
  0
LINE
  8
CSLAYER1
  6
CONTINUOUS
 62
     7
 10
236.000000
 20
243.522327
 11
236.000000
 21
270.522327
  0
ARC
  8
CSLAYER1
  6
CONTINUOUS
 62
     7
 10
234.500000
 20
270.522327
 40
1.500000
 50
-0.000000
 51
180.000000
  0
ARC
  8
CSLAYER1
  6
CONTINUOUS
 62
     7
 10
234.500000
 20
243.522327
 40
1.500000
 50
180.000000
 51
360.000000
  0
LINE
  8
CSLAYER1
  6
CONTINUOUS
 62
     7
 10
239.000000
 20
243.522327
 11
239.000000
 21
270.522327
  0
LINE
  8
CSLAYER1
  6
CONTINUOUS
 62
     7
 10
242.000000
 20
243.522327
 11
242.000000
 21
270.522327
  0
ARC
  8
CSLAYER1
  6
CONTINUOUS
 62
     7
 10
240.500000
 20
270.522327
 40
1.500000
 50
-0.000000
 51
180.000000
  0
ARC
  8
CSLAYER1
  6
CONTINUOUS
 62
     7
 10
240.500000
 20
243.522327
 40
1.500000
 50
180.000000
 51
360.000000
  0
LINE
  8
CSLAYER1
  6
CONTINUOUS
 62
     7
 10
245.000000
 20
243.522327
 11
245.000000
 21
270.522327
  0
LINE
  8
CSLAYER1
  6
CONTINUOUS
 62
     7
 10
248.000000
 20
243.522327
 11
248.000000
 21
270.522327
  0
ARC
  8
CSLAYER1
  6
CONTINUOUS
 62
     7
 10
246.500000
 20
270.522327
 40
1.500000
 50
-0.000000
 51
180.000000
  0
ARC
  8
CSLAYER1
  6
CONTINUOUS
 62
     7
 10
246.500000
 20
243.522327
 40
1.500000
 50
180.000000
 51
360.000000
  0
LINE
  8
CSLAYER1
  6
CONTINUOUS
 62
     7
 10
145.500000
 20
276.022327
 11
286.500000
 21
276.022327
  0
LINE
  8
CSLAYER1
  6
DASHED
 62
     3
 10
144.500000
 20
237.022327
 11
286.500000
 21
237.022327
  0
LINE
  8
CSLAYER1
  6
CONTINUOUS
 62
     7
 10
285.500000
 20
276.022327
 11
286.500000
 21
275.022327
  0
LINE
  8
CSLAYER1
  6
CONTINUOUS
 62
     7
 10
286.500000
 20
276.022327
 11
288.000000
 21
276.022327
  0
LINE
  8
CSLAYER1
  6
CONTINUOUS
 62
     7
 10
145.500000
 20
276.022327
 11
144.500000
 21
275.022327
  0
LINE
  8
CSLAYER1
  6
CONTINUOUS
 62
     6
 10
288.000000
 20
214.022327
 11
288.000000
 21
95.022327
  0
LINE
  8
CSLAYER1
  6
CONTINUOUS
 62
     6
 10
144.500000
 20
215.522327
 11
286.500000
 21
215.522327
  0
LINE
  8
CSLAYER1
  6
CONTINUOUS
 62
     7
 10
144.500000
 20
96.022327
 11
144.500000
 21
215.522327
  0
LINE
  8
CSLAYER1
  6
CONTINUOUS
 62
     7
 10
288.000000
 20
95.022327
 11
145.500000
 21
95.022327
  0
LINE
  8
CSLAYER1
  6
CONTINUOUS
 62
     7
 10
286.500000
 20
215.522327
 11
286.500000
 21
214.022327
  0
LINE
  8
CSLAYER1
  6
CONTINUOUS
 62
     7
 10
288.000000
 20
214.022327
 11
286.500000
 21
214.022327
  0
LINE
  8
CSLAYER1
  6
DASHED
 62
     3
 10
286.500000
 20
214.022327
 11
286.500000
 21
95.022327
  0
LINE
  8
CSLAYER1
  6
DASHED
 62
     3
 10
286.500000
 20
214.022327
 11
144.500000
 21
214.022327
  0
LINE
  8
CSLAYER1
  6
CONTINUOUS
 62
     7
 10
161.000000
 20
171.522327
 11
161.000000
 21
198.522327
  0
LINE
  8
CSLAYER1
  6
CONTINUOUS
 62
     7
 10
164.000000
 20
171.522327
 11
164.000000
 21
198.522327
  0
ARC
  8
CSLAYER1
  6
CONTINUOUS
 62
     7
 10
162.500000
 20
198.522327
 40
1.500000
 50
-0.000000
 51
180.000000
  0
ARC
  8
CSLAYER1
  6
CONTINUOUS
 62
     7
 10
162.500000
 20
171.522327
 40
1.500000
 50
180.000000
 51
360.000000
  0
LINE
  8
CSLAYER1
  6
CONTINUOUS
 62
     7
 10
167.000000
 20
171.522327
 11
167.000000
 21
198.522327
  0
LINE
  8
CSLAYER1
  6
CONTINUOUS
 62
     7
 10
170.000000
 20
171.522327
 11
170.000000
 21
198.522327
  0
ARC
  8
CSLAYER1
  6
CONTINUOUS
 62
     7
 10
168.500000
 20
198.522327
 40
1.500000
 50
-0.000000
 51
180.000000
  0
ARC
  8
CSLAYER1
  6
CONTINUOUS
 62
     7
 10
168.500000
 20
171.522327
 40
1.500000
 50
180.000000
 51
360.000000
  0
LINE
  8
CSLAYER1
  6
CONTINUOUS
 62
     7
 10
173.000000
 20
171.522327
 11
173.000000
 21
198.522327
  0
LINE
  8
CSLAYER1
  6
CONTINUOUS
 62
     7
 10
176.000000
 20
171.522327
 11
176.000000
 21
198.522327
  0
ARC
  8
CSLAYER1
  6
CONTINUOUS
 62
     7
 10
174.500000
 20
198.522327
 40
1.500000
 50
-0.000000
 51
180.000000
  0
ARC
  8
CSLAYER1
  6
CONTINUOUS
 62
     7
 10
174.500000
 20
171.522327
 40
1.500000
 50
180.000000
 51
360.000000
  0
LINE
  8
CSLAYER1
  6
CONTINUOUS
 62
     7
 10
179.000000
 20
171.522327
 11
179.000000
 21
198.522327
  0
LINE
  8
CSLAYER1
  6
CONTINUOUS
 62
     7
 10
182.000000
 20
171.522327
 11
182.000000
 21
198.522327
  0
ARC
  8
CSLAYER1
  6
CONTINUOUS
 62
     7
 10
180.500000
 20
198.522327
 40
1.500000
 50
-0.000000
 51
180.000000
  0
ARC
  8
CSLAYER1
  6
CONTINUOUS
 62
     7
 10
180.500000
 20
171.522327
 40
1.500000
 50
180.000000
 51
360.000000
  0
LINE
  8
CSLAYER1
  6
CONTINUOUS
 62
     7
 10
185.000000
 20
171.522327
 11
185.000000
 21
198.522327
  0
LINE
  8
CSLAYER1
  6
CONTINUOUS
 62
     7
 10
188.000000
 20
171.522327
 11
188.000000
 21
198.522327
  0
ARC
  8
CSLAYER1
  6
CONTINUOUS
 62
     7
 10
186.500000
 20
198.522327
 40
1.500000
 50
-0.000000
 51
180.000000
  0
ARC
  8
CSLAYER1
  6
CONTINUOUS
 62
     7
 10
186.500000
 20
171.522327
 40
1.500000
 50
180.000000
 51
360.000000
  0
LINE
  8
CSLAYER1
  6
CONTINUOUS
 62
     7
 10
191.000000
 20
171.522327
 11
191.000000
 21
198.522327
  0
LINE
  8
CSLAYER1
  6
CONTINUOUS
 62
     7
 10
194.000000
 20
171.522327
 11
194.000000
 21
198.522327
  0
ARC
  8
CSLAYER1
  6
CONTINUOUS
 62
     7
 10
192.500000
 20
198.522327
 40
1.500000
 50
-0.000000
 51
180.000000
  0
ARC
  8
CSLAYER1
  6
CONTINUOUS
 62
     7
 10
192.500000
 20
171.522327
 40
1.500000
 50
180.000000
 51
360.000000
  0
LINE
  8
CSLAYER1
  6
CONTINUOUS
 62
     7
 10
197.000000
 20
171.522327
 11
197.000000
 21
198.522327
  0
LINE
  8
CSLAYER1
  6
CONTINUOUS
 62
     7
 10
200.000000
 20
171.522327
 11
200.000000
 21
198.522327
  0
ARC
  8
CSLAYER1
  6
CONTINUOUS
 62
     7
 10
198.500000
 20
198.522327
 40
1.500000
 50
-0.000000
 51
180.000000
  0
ARC
  8
CSLAYER1
  6
CONTINUOUS
 62
     7
 10
198.500000
 20
171.522327
 40
1.500000
 50
180.000000
 51
360.000000
  0
LINE
  8
CSLAYER1
  6
CONTINUOUS
 62
     7
 10
203.000000
 20
171.522327
 11
203.000000
 21
198.522327
  0
LINE
  8
CSLAYER1
  6
CONTINUOUS
 62
     7
 10
206.000000
 20
171.522327
 11
206.000000
 21
198.522327
  0
ARC
  8
CSLAYER1
  6
CONTINUOUS
 62
     7
 10
204.500000
 20
198.522327
 40
1.500000
 50
-0.000000
 51
180.000000
  0
ARC
  8
CSLAYER1
  6
CONTINUOUS
 62
     7
 10
204.500000
 20
171.522327
 40
1.500000
 50
180.000000
 51
360.000000
  0
LINE
  8
CSLAYER1
  6
CONTINUOUS
 62
     7
 10
209.000000
 20
171.522327
 11
209.000000
 21
198.522327
  0
LINE
  8
CSLAYER1
  6
CONTINUOUS
 62
     7
 10
212.000000
 20
171.522327
 11
212.000000
 21
198.522327
  0
ARC
  8
CSLAYER1
  6
CONTINUOUS
 62
     7
 10
210.500000
 20
198.522327
 40
1.500000
 50
-0.000000
 51
180.000000
  0
ARC
  8
CSLAYER1
  6
CONTINUOUS
 62
     7
 10
210.500000
 20
171.522327
 40
1.500000
 50
180.000000
 51
360.000000
  0
LINE
  8
CSLAYER1
  6
CONTINUOUS
 62
     7
 10
215.000000
 20
171.522327
 11
215.000000
 21
198.522327
  0
LINE
  8
CSLAYER1
  6
CONTINUOUS
 62
     7
 10
218.000000
 20
171.522327
 11
218.000000
 21
198.522327
  0
ARC
  8
CSLAYER1
  6
CONTINUOUS
 62
     7
 10
216.500000
 20
198.522327
 40
1.500000
 50
-0.000000
 51
180.000000
  0
ARC
  8
CSLAYER1
  6
CONTINUOUS
 62
     7
 10
216.500000
 20
171.522327
 40
1.500000
 50
180.000000
 51
360.000000
  0
LINE
  8
CSLAYER1
  6
CONTINUOUS
 62
     7
 10
221.000000
 20
171.522327
 11
221.000000
 21
198.522327
  0
LINE
  8
CSLAYER1
  6
CONTINUOUS
 62
     7
 10
224.000000
 20
171.522327
 11
224.000000
 21
198.522327
  0
ARC
  8
CSLAYER1
  6
CONTINUOUS
 62
     7
 10
222.500000
 20
198.522327
 40
1.500000
 50
-0.000000
 51
180.000000
  0
ARC
  8
CSLAYER1
  6
CONTINUOUS
 62
     7
 10
222.500000
 20
171.522327
 40
1.500000
 50
180.000000
 51
360.000000
  0
LINE
  8
CSLAYER1
  6
CONTINUOUS
 62
     7
 10
227.000000
 20
171.522327
 11
227.000000
 21
198.522327
  0
LINE
  8
CSLAYER1
  6
CONTINUOUS
 62
     7
 10
230.000000
 20
171.522327
 11
230.000000
 21
198.522327
  0
ARC
  8
CSLAYER1
  6
CONTINUOUS
 62
     7
 10
228.500000
 20
198.522327
 40
1.500000
 50
-0.000000
 51
180.000000
  0
ARC
  8
CSLAYER1
  6
CONTINUOUS
 62
     7
 10
228.500000
 20
171.522327
 40
1.500000
 50
180.000000
 51
360.000000
  0
LINE
  8
CSLAYER1
  6
CONTINUOUS
 62
     7
 10
233.000000
 20
171.522327
 11
233.000000
 21
198.522327
  0
LINE
  8
CSLAYER1
  6
CONTINUOUS
 62
     7
 10
236.000000
 20
171.522327
 11
236.000000
 21
198.522327
  0
ARC
  8
CSLAYER1
  6
CONTINUOUS
 62
     7
 10
234.500000
 20
198.522327
 40
1.500000
 50
-0.000000
 51
180.000000
  0
ARC
  8
CSLAYER1
  6
CONTINUOUS
 62
     7
 10
234.500000
 20
171.522327
 40
1.500000
 50
180.000000
 51
360.000000
  0
LINE
  8
CSLAYER1
  6
CONTINUOUS
 62
     7
 10
239.000000
 20
171.522327
 11
239.000000
 21
198.522327
  0
LINE
  8
CSLAYER1
  6
CONTINUOUS
 62
     7
 10
242.000000
 20
171.522327
 11
242.000000
 21
198.522327
  0
ARC
  8
CSLAYER1
  6
CONTINUOUS
 62
     7
 10
240.500000
 20
198.522327
 40
1.500000
 50
-0.000000
 51
180.000000
  0
ARC
  8
CSLAYER1
  6
CONTINUOUS
 62
     7
 10
240.500000
 20
171.522327
 40
1.500000
 50
180.000000
 51
360.000000
  0
LINE
  8
CSLAYER1
  6
CONTINUOUS
 62
     7
 10
245.000000
 20
171.522327
 11
245.000000
 21
198.522327
  0
LINE
  8
CSLAYER1
  6
CONTINUOUS
 62
     7
 10
248.000000
 20
171.522327
 11
248.000000
 21
198.522327
  0
ARC
  8
CSLAYER1
  6
CONTINUOUS
 62
     7
 10
246.500000
 20
198.522327
 40
1.500000
 50
-0.000000
 51
180.000000
  0
ARC
  8
CSLAYER1
  6
CONTINUOUS
 62
     7
 10
246.500000
 20
171.522327
 40
1.500000
 50
180.000000
 51
360.000000
  0
LINE
  8
CSLAYER1
  6
CONTINUOUS
 62
     7
 10
251.000000
 20
171.522327
 11
251.000000
 21
198.522327
  0
LINE
  8
CSLAYER1
  6
CONTINUOUS
 62
     7
 10
254.000000
 20
171.522327
 11
254.000000
 21
198.522327
  0
ARC
  8
CSLAYER1
  6
CONTINUOUS
 62
     7
 10
252.500000
 20
198.522327
 40
1.500000
 50
-0.000000
 51
180.000000
  0
ARC
  8
CSLAYER1
  6
CONTINUOUS
 62
     7
 10
252.500000
 20
171.522327
 40
1.500000
 50
180.000000
 51
360.000000
  0
LINE
  8
CSLAYER1
  6
CONTINUOUS
 62
     7
 10
257.000000
 20
171.522327
 11
257.000000
 21
198.522327
  0
LINE
  8
CSLAYER1
  6
CONTINUOUS
 62
     7
 10
260.000000
 20
171.522327
 11
260.000000
 21
198.522327
  0
ARC
  8
CSLAYER1
  6
CONTINUOUS
 62
     7
 10
258.500000
 20
198.522327
 40
1.500000
 50
-0.000000
 51
180.000000
  0
ARC
  8
CSLAYER1
  6
CONTINUOUS
 62
     7
 10
258.500000
 20
171.522327
 40
1.500000
 50
180.000000
 51
360.000000
  0
LINE
  8
CSLAYER1
  6
CONTINUOUS
 62
     7
 10
263.000000
 20
171.522327
 11
263.000000
 21
198.522327
  0
LINE
  8
CSLAYER1
  6
CONTINUOUS
 62
     7
 10
266.000000
 20
171.522327
 11
266.000000
 21
198.522327
  0
ARC
  8
CSLAYER1
  6
CONTINUOUS
 62
     7
 10
264.500000
 20
198.522327
 40
1.500000
 50
-0.000000
 51
180.000000
  0
ARC
  8
CSLAYER1
  6
CONTINUOUS
 62
     7
 10
264.500000
 20
171.522327
 40
1.500000
 50
180.000000
 51
360.000000
  0
LINE
  8
CSLAYER1
  6
CONTINUOUS
 62
     7
 10
269.000000
 20
171.522327
 11
269.000000
 21
198.522327
  0
LINE
  8
CSLAYER1
  6
CONTINUOUS
 62
     7
 10
272.000000
 20
171.522327
 11
272.000000
 21
198.522327
  0
ARC
  8
CSLAYER1
  6
CONTINUOUS
 62
     7
 10
270.500000
 20
198.522327
 40
1.500000
 50
-0.000000
 51
180.000000
  0
ARC
  8
CSLAYER1
  6
CONTINUOUS
 62
     7
 10
270.500000
 20
171.522327
 40
1.500000
 50
180.000000
 51
360.000000
  0
LINE
  8
CSLAYER1
  6
CONTINUOUS
 62
     7
 10
275.000000
 20
171.522327
 11
275.000000
 21
198.522327
  0
LINE
  8
CSLAYER1
  6
CONTINUOUS
 62
     7
 10
278.000000
 20
171.522327
 11
278.000000
 21
198.522327
  0
ARC
  8
CSLAYER1
  6
CONTINUOUS
 62
     7
 10
276.500000
 20
198.522327
 40
1.500000
 50
-0.000000
 51
180.000000
  0
ARC
  8
CSLAYER1
  6
CONTINUOUS
 62
     7
 10
276.500000
 20
171.522327
 40
1.500000
 50
180.000000
 51
360.000000
  0
LINE
  8
CSLAYER1
  6
CONTINUOUS
 62
     7
 10
251.000000
 20
158.522327
 11
251.000000
 21
131.522327
  0
LINE
  8
CSLAYER1
  6
CONTINUOUS
 62
     7
 10
254.000000
 20
158.522327
 11
254.000000
 21
131.522327
  0
ARC
  8
CSLAYER1
  6
CONTINUOUS
 62
     7
 10
252.500000
 20
131.522327
 40
1.500000
 50
180.000000
 51
360.000000
  0
ARC
  8
CSLAYER1
  6
CONTINUOUS
 62
     7
 10
252.500000
 20
158.522327
 40
1.500000
 50
0.000000
 51
180.000000
  0
LINE
  8
CSLAYER1
  6
CONTINUOUS
 62
     7
 10
257.000000
 20
158.522327
 11
257.000000
 21
131.522327
  0
LINE
  8
CSLAYER1
  6
CONTINUOUS
 62
     7
 10
260.000000
 20
158.522327
 11
260.000000
 21
131.522327
  0
ARC
  8
CSLAYER1
  6
CONTINUOUS
 62
     7
 10
258.500000
 20
131.522327
 40
1.500000
 50
180.000000
 51
360.000000
  0
ARC
  8
CSLAYER1
  6
CONTINUOUS
 62
     7
 10
258.500000
 20
158.522327
 40
1.500000
 50
0.000000
 51
180.000000
  0
LINE
  8
CSLAYER1
  6
CONTINUOUS
 62
     7
 10
263.000000
 20
158.522327
 11
263.000000
 21
131.522327
  0
LINE
  8
CSLAYER1
  6
CONTINUOUS
 62
     7
 10
266.000000
 20
158.522327
 11
266.000000
 21
131.522327
  0
ARC
  8
CSLAYER1
  6
CONTINUOUS
 62
     7
 10
264.500000
 20
131.522327
 40
1.500000
 50
-180.000000
 51
0.000000
  0
ARC
  8
CSLAYER1
  6
CONTINUOUS
 62
     7
 10
264.500000
 20
158.522327
 40
1.500000
 50
0.000000
 51
180.000000
  0
LINE
  8
CSLAYER1
  6
CONTINUOUS
 62
     7
 10
269.000000
 20
158.522327
 11
269.000000
 21
131.522327
  0
LINE
  8
CSLAYER1
  6
CONTINUOUS
 62
     7
 10
272.000000
 20
158.522327
 11
272.000000
 21
131.522327
  0
ARC
  8
CSLAYER1
  6
CONTINUOUS
 62
     7
 10
270.500000
 20
131.522327
 40
1.500000
 50
-180.000000
 51
0.000000
  0
ARC
  8
CSLAYER1
  6
CONTINUOUS
 62
     7
 10
270.500000
 20
158.522327
 40
1.500000
 50
0.000000
 51
180.000000
  0
LINE
  8
CSLAYER1
  6
CONTINUOUS
 62
     7
 10
275.000000
 20
158.522327
 11
275.000000
 21
131.522327
  0
LINE
  8
CSLAYER1
  6
CONTINUOUS
 62
     7
 10
278.000000
 20
158.522327
 11
278.000000
 21
131.522327
  0
ARC
  8
CSLAYER1
  6
CONTINUOUS
 62
     7
 10
276.500000
 20
131.522327
 40
1.500000
 50
-180.000000
 51
0.000000
  0
ARC
  8
CSLAYER1
  6
CONTINUOUS
 62
     7
 10
276.500000
 20
158.522327
 40
1.500000
 50
0.000000
 51
180.000000
  0
CIRCLE
  8
CSLAYER1
  6
CONTINUOUS
 62
     7
 10
202.500000
 20
136.522327
 40
3.000000
  0
CIRCLE
  8
CSLAYER1
  6
CONTINUOUS
 62
     7
 10
192.500000
 20
136.522327
 40
3.000000
  0
CIRCLE
  8
CSLAYER1
  6
CONTINUOUS
 62
     7
 10
182.500000
 20
136.022327
 40
3.000000
  0
CIRCLE
  8
CSLAYER1
  6
CONTINUOUS
 62
     7
 10
166.500000
 20
120.022327
 40
3.000000
  0
CIRCLE
  8
CSLAYER1
  6
CONTINUOUS
 62
     7
 10
190.500000
 20
114.022327
 40
3.000000
  0
CIRCLE
  8
CSLAYER1
  6
CONTINUOUS
 62
     7
 10
203.500000
 20
118.022327
 40
3.000000
  0
CIRCLE
  8
CSLAYER1
  6
CONTINUOUS
 62
     7
 10
212.500000
 20
118.022327
 40
3.000000
  0
TEXT
  8
CSLAYER1
 62
     3
 10
180.000000
 20
140.022308
 40
3.500000
 41
0.857143
  1
CL
 50
0.000000
 51
0.000000
  7
FX_FONT
 72
     5
 11
185.000000
 21
140.022308
  0
TEXT
  8
CSLAYER1
 62
     3
 10
188.767944
 20
140.022308
 40
3.500000
 41
0.803571
  1
OFS
 50
0.000000
 51
0.000000
  7
FX_FONT
 72
     5
 11
196.267944
 21
140.022308
  0
TEXT
  8
CSLAYER1
 62
     3
 10
198.767944
 20
140.022308
 40
3.500000
 41
0.803571
  1
SPD
 50
0.000000
 51
0.000000
  7
FX_FONT
 72
     5
 11
206.267944
 21
140.022308
  0
TEXT
  8
CSLAYER1
 62
     3
 10
164.000000
 20
123.522301
 40
3.500000
 41
0.857143
  1
SS
 50
0.000000
 51
0.000000
  7
FX_FONT
 72
     5
 11
169.000000
 21
123.522301
  0
TEXT
  8
CSLAYER1
 62
     3
 10
188.000000
 20
117.522301
 40
3.500000
 41
0.857143
  1
SW
 50
0.000000
 51
0.000000
  7
FX_FONT
 72
     5
 11
193.000000
 21
117.522301
  0
TEXT
  8
CSLAYER1
 62
     3
 10
201.000000
 20
121.522301
 40
3.500000
 41
0.857143
  1
PH
 50
0.000000
 51
0.000000
  7
FX_FONT
 72
     5
 11
206.000000
 21
121.522301
  0
TEXT
  8
CSLAYER1
 62
     3
 10
210.000000
 20
121.522301
 40
3.500000
 41
0.857143
  1
GA
 50
0.000000
 51
0.000000
  7
FX_FONT
 72
     5
 11
215.000000
 21
121.522301
  0
LINE
  8
CSLAYER1
  6
CONTINUOUS
 62
     7
 10
144.500000
 20
96.022327
 11
145.500000
 21
95.022327
  0
LINE
  8
CSLAYER1
  6
CONTINUOUS
 62
     7
 10
286.500000
 20
27.522327
 11
145.500000
 21
27.522327
  0
LINE
  8
CSLAYER1
  6
CONTINUOUS
 62
     7
 10
143.500000
 20
29.522327
 11
143.500000
 21
67.522327
  0
LINE
  8
CSLAYER1
  6
CONTINUOUS
 62
     7
 10
143.500000
 20
67.522327
 11
165.500000
 21
67.522327
  0
LINE
  8
CSLAYER1
  6
CONTINUOUS
 62
     7
 10
286.500000
 20
66.522327
 11
286.500000
 21
54.522327
  0
LINE
  8
CSLAYER1
  6
CONTINUOUS
 62
     7
 10
145.500000
 20
67.522327
 11
145.500000
 21
27.522327
  0
LINE
  8
CSLAYER1
  6
CONTINUOUS
 62
     7
 10
286.500000
 20
66.522327
 11
285.500000
 21
67.522327
  0
LINE
  8
CSLAYER1
  6
CENTER
 62
     3
 10
278.500000
 20
33.022327
 11
278.500000
 21
42.022327
  0
LINE
  8
CSLAYER1
  6
CENTER
 62
     3
 10
283.000000
 20
37.522327
 11
274.000000
 21
37.522327
  0
CIRCLE
  8
CSLAYER1
  6
CONTINUOUS
 62
     3
 10
278.500000
 20
37.522327
 40
2.000000
  0
CIRCLE
  8
CSLAYER1
  6
CONTINUOUS
 62
     6
 10
278.500000
 20
37.522327
 40
1.600000
  0
LINE
  8
CSLAYER1
  6
CENTER
 62
     3
 10
278.500000
 20
58.022327
 11
278.500000
 21
67.022327
  0
LINE
  8
CSLAYER1
  6
CENTER
 62
     3
 10
283.000000
 20
62.522327
 11
274.000000
 21
62.522327
  0
CIRCLE
  8
CSLAYER1
  6
CONTINUOUS
 62
     3
 10
278.500000
 20
62.522327
 40
2.000000
  0
CIRCLE
  8
CSLAYER1
  6
CONTINUOUS
 62
     6
 10
278.500000
 20
62.522327
 40
1.600000
  0
LINE
  8
CSLAYER1
  6
CENTER
 62
     3
 10
153.500000
 20
58.022327
 11
153.500000
 21
67.022327
  0
LINE
  8
CSLAYER1
  6
CENTER
 62
     3
 10
158.000000
 20
62.522327
 11
149.000000
 21
62.522327
  0
CIRCLE
  8
CSLAYER1
  6
CONTINUOUS
 62
     3
 10
153.500000
 20
62.522327
 40
2.000000
  0
CIRCLE
  8
CSLAYER1
  6
CONTINUOUS
 62
     6
 10
153.500000
 20
62.522327
 40
1.600000
  0
LINE
  8
CSLAYER1
  6
CENTER
 62
     3
 10
153.500000
 20
33.022327
 11
153.500000
 21
42.022327
  0
LINE
  8
CSLAYER1
  6
CENTER
 62
     3
 10
158.000000
 20
37.522327
 11
149.000000
 21
37.522327
  0
CIRCLE
  8
CSLAYER1
  6
CONTINUOUS
 62
     3
 10
153.500000
 20
37.522327
 40
2.000000
  0
CIRCLE
  8
CSLAYER1
  6
CONTINUOUS
 62
     6
 10
153.500000
 20
37.522327
 40
1.600000
  0
LINE
  8
CSLAYER1
  6
DASHED
 62
     3
 10
286.500000
 20
29.522327
 11
145.500000
 21
29.522327
  0
LINE
  8
CSLAYER1
  6
CONTINUOUS
 62
     7
 10
165.500000
 20
65.522327
 11
167.500000
 21
65.522327
  0
LINE
  8
CSLAYER1
  6
CONTINUOUS
 62
     7
 10
259.500000
 20
65.522327
 11
259.500000
 21
67.522327
  0
LINE
  8
CSLAYER1
  6
CONTINUOUS
 62
     7
 10
257.500000
 20
65.522327
 11
257.500000
 21
67.522327
  0
LINE
  8
CSLAYER1
  6
CONTINUOUS
 62
     7
 10
245.500000
 20
65.522327
 11
245.500000
 21
67.522327
  0
LINE
  8
CSLAYER1
  6
CONTINUOUS
 62
     7
 10
247.500000
 20
65.522327
 11
247.500000
 21
67.522327
  0
LINE
  8
CSLAYER1
  6
CONTINUOUS
 62
     7
 10
179.500000
 20
65.522327
 11
179.500000
 21
67.522327
  0
LINE
  8
CSLAYER1
  6
CONTINUOUS
 62
     7
 10
177.500000
 20
65.522327
 11
177.500000
 21
67.522327
  0
LINE
  8
CSLAYER1
  6
CONTINUOUS
 62
     7
 10
165.500000
 20
65.522327
 11
165.500000
 21
67.522327
  0
LINE
  8
CSLAYER1
  6
CONTINUOUS
 62
     7
 10
167.500000
 20
65.522327
 11
167.500000
 21
67.522327
  0
LINE
  8
CSLAYER1
  6
CONTINUOUS
 62
     7
 10
259.500000
 20
67.522327
 11
285.500000
 21
67.522327
  0
LINE
  8
CSLAYER1
  6
CONTINUOUS
 62
     7
 10
247.500000
 20
67.522327
 11
257.500000
 21
67.522327
  0
LINE
  8
CSLAYER1
  6
CONTINUOUS
 62
     7
 10
179.500000
 20
67.522327
 11
245.500000
 21
67.522327
  0
LINE
  8
CSLAYER1
  6
CONTINUOUS
 62
     7
 10
167.500000
 20
67.522327
 11
177.500000
 21
67.522327
  0
LINE
  8
CSLAYER1
  6
CONTINUOUS
 62
     7
 10
284.500000
 20
40.522327
 11
286.500000
 21
40.522327
  0
LINE
  8
CSLAYER1
  6
CONTINUOUS
 62
     7
 10
284.500000
 20
42.522327
 11
286.500000
 21
42.522327
  0
LINE
  8
CSLAYER1
  6
CONTINUOUS
 62
     7
 10
284.500000
 20
54.522327
 11
286.500000
 21
54.522327
  0
LINE
  8
CSLAYER1
  6
CONTINUOUS
 62
     7
 10
284.500000
 20
52.522327
 11
286.500000
 21
52.522327
  0
LINE
  8
CSLAYER1
  6
CONTINUOUS
 62
     7
 10
286.500000
 20
52.522327
 11
286.500000
 21
42.522327
  0
LINE
  8
CSLAYER1
  6
CONTINUOUS
 62
     7
 10
286.500000
 20
40.522327
 11
286.500000
 21
27.522327
  0
LINE
  8
CSLAYER1
  6
CONTINUOUS
 62
     7
 10
286.500000
 20
52.522327
 11
286.500000
 21
42.522327
  0
LINE
  8
CSLAYER1
  6
CONTINUOUS
 62
     7
 10
177.500000
 20
65.522327
 11
179.500000
 21
65.522327
  0
LINE
  8
CSLAYER1
  6
CONTINUOUS
 62
     3
 10
169.500000
 20
65.522327
 11
175.500000
 21
65.522327
  0
LINE
  8
CSLAYER1
  6
CONTINUOUS
 62
     7
 10
245.500000
 20
65.522327
 11
247.500000
 21
65.522327
  0
LINE
  8
CSLAYER1
  6
CONTINUOUS
 62
     7
 10
257.500000
 20
65.522327
 11
259.500000
 21
65.522327
  0
LINE
  8
CSLAYER1
  6
CONTINUOUS
 62
     3
 10
249.500000
 20
65.522327
 11
255.500000
 21
65.522327
  0
ARC
  8
CSLAYER1
  6
CONTINUOUS
 62
     7
 10
145.500000
 20
29.522327
 40
2.000000
 50
180.000000
 51
270.000000
  0
LINE
  8
CSLAYER1
  6
CONTINUOUS
 62
     7
 10
145.500000
 20
29.522327
 11
143.500000
 21
29.522327
  0
LINE
  8
CSLAYER1
  6
CONTINUOUS
 62
     7
 10
284.500000
 20
54.522327
 11
284.500000
 21
52.522327
  0
LINE
  8
CSLAYER1
  6
CONTINUOUS
 62
     7
 10
284.500000
 20
42.522327
 11
284.500000
 21
40.522327
  0
LINE
  8
CSLAYER1
  6
CONTINUOUS
 62
     3
 10
284.500000
 20
50.522327
 11
284.500000
 21
44.522327
  0
LINE
  8
CSLAYER1
  6
CONTINUOUS
 62
     6
 10
318.000000
 20
95.022327
 11
318.000000
 21
213.522327
  0
LINE
  8
CSLAYER1
  6
CONTINUOUS
 62
     6
 10
320.000000
 20
215.522327
 11
358.500000
 21
215.522327
  0
LINE
  8
CSLAYER1
  6
CONTINUOUS
 62
     6
 10
358.500000
 20
215.522327
 11
358.500000
 21
214.022327
  0
LINE
  8
CSLAYER1
  6
CONTINUOUS
 62
     7
 10
318.000000
 20
214.022327
 11
359.500000
 21
214.022327
  0
LINE
  8
CSLAYER1
  6
DASHED
 62
     3
 10
319.500000
 20
214.022327
 11
319.500000
 21
95.022327
  0
LINE
  8
CSLAYER1
  6
CONTINUOUS
 62
     6
 10
357.500000
 20
95.022327
 11
318.000000
 21
95.022327
  0
ARC
  8
CSLAYER1
  6
CONTINUOUS
 62
     7
 10
320.000000
 20
213.522327
 40
2.000000
 50
90.000000
 51
180.000000
  0
LINE
  8
CSLAYER1
  6
CONTINUOUS
 62
     7
 10
358.500000
 20
96.022327
 11
357.500000
 21
95.022327
  0
LINE
  8
CSLAYER1
  6
CONTINUOUS
 62
     7
 10
357.500000
 20
214.022327
 11
358.500000
 21
213.022327
  0
LINE
  8
CSLAYER1
  6
CONTINUOUS
 62
     6
 10
358.500000
 20
214.022327
 11
358.500000
 21
96.022327
  0
CIRCLE
  8
CSLAYER1
  6
CONTINUOUS
 62
     7
 10
339.500000
 20
101.022327
 40
1.500000
  0
LINE
  8
CSLAYER1
  6
CONTINUOUS
 62
     7
 10
351.500000
 20
158.522327
 11
351.500000
 21
131.522327
  0
LINE
  8
CSLAYER1
  6
CONTINUOUS
 62
     7
 10
348.500000
 20
158.522327
 11
348.500000
 21
131.522327
  0
ARC
  8
CSLAYER1
  6
CONTINUOUS
 62
     7
 10
350.000000
 20
131.522327
 40
1.500000
 50
180.000000
 51
360.000000
  0
ARC
  8
CSLAYER1
  6
CONTINUOUS
 62
     7
 10
350.000000
 20
158.522327
 40
1.500000
 50
0.000000
 51
180.000000
  0
LINE
  8
CSLAYER1
  6
CONTINUOUS
 62
     7
 10
345.500000
 20
158.522327
 11
345.500000
 21
131.522327
  0
LINE
  8
CSLAYER1
  6
CONTINUOUS
 62
     7
 10
342.500000
 20
158.522327
 11
342.500000
 21
131.522327
  0
ARC
  8
CSLAYER1
  6
CONTINUOUS
 62
     7
 10
344.000000
 20
131.522327
 40
1.500000
 50
180.000000
 51
360.000000
  0
ARC
  8
CSLAYER1
  6
CONTINUOUS
 62
     7
 10
344.000000
 20
158.522327
 40
1.500000
 50
0.000000
 51
180.000000
  0
LINE
  8
CSLAYER1
  6
CONTINUOUS
 62
     7
 10
339.500000
 20
158.522327
 11
339.500000
 21
131.522327
  0
LINE
  8
CSLAYER1
  6
CONTINUOUS
 62
     7
 10
336.500000
 20
158.522327
 11
336.500000
 21
131.522327
  0
ARC
  8
CSLAYER1
  6
CONTINUOUS
 62
     7
 10
338.000000
 20
131.522327
 40
1.500000
 50
-180.000000
 51
0.000000
  0
ARC
  8
CSLAYER1
  6
CONTINUOUS
 62
     7
 10
338.000000
 20
158.522327
 40
1.500000
 50
0.000000
 51
180.000000
  0
LINE
  8
CSLAYER1
  6
CONTINUOUS
 62
     7
 10
333.500000
 20
158.522327
 11
333.500000
 21
131.522327
  0
LINE
  8
CSLAYER1
  6
CONTINUOUS
 62
     7
 10
330.500000
 20
158.522327
 11
330.500000
 21
131.522327
  0
ARC
  8
CSLAYER1
  6
CONTINUOUS
 62
     7
 10
332.000000
 20
131.522327
 40
1.500000
 50
-180.000000
 51
0.000000
  0
ARC
  8
CSLAYER1
  6
CONTINUOUS
 62
     7
 10
332.000000
 20
158.522327
 40
1.500000
 50
0.000000
 51
180.000000
  0
LINE
  8
CSLAYER1
  6
CONTINUOUS
 62
     7
 10
327.500000
 20
158.522327
 11
327.500000
 21
131.522327
  0
LINE
  8
CSLAYER1
  6
CONTINUOUS
 62
     7
 10
324.500000
 20
158.522327
 11
324.500000
 21
131.522327
  0
ARC
  8
CSLAYER1
  6
CONTINUOUS
 62
     7
 10
326.000000
 20
131.522327
 40
1.500000
 50
-180.000000
 51
0.000000
  0
ARC
  8
CSLAYER1
  6
CONTINUOUS
 62
     7
 10
326.000000
 20
158.522327
 40
1.500000
 50
0.000000
 51
180.000000
  0
LINE
  8
CSLAYER1
  6
CONTINUOUS
 62
     7
 10
351.500000
 20
171.522327
 11
351.500000
 21
198.522327
  0
LINE
  8
CSLAYER1
  6
CONTINUOUS
 62
     7
 10
348.500000
 20
171.522327
 11
348.500000
 21
198.522327
  0
ARC
  8
CSLAYER1
  6
CONTINUOUS
 62
     7
 10
350.000000
 20
198.522327
 40
1.500000
 50
0.000000
 51
180.000000
  0
ARC
  8
CSLAYER1
  6
CONTINUOUS
 62
     7
 10
350.000000
 20
171.522327
 40
1.500000
 50
180.000000
 51
360.000000
  0
LINE
  8
CSLAYER1
  6
CONTINUOUS
 62
     7
 10
345.500000
 20
171.522327
 11
345.500000
 21
198.522327
  0
LINE
  8
CSLAYER1
  6
CONTINUOUS
 62
     7
 10
342.500000
 20
171.522327
 11
342.500000
 21
198.522327
  0
ARC
  8
CSLAYER1
  6
CONTINUOUS
 62
     7
 10
344.000000
 20
198.522327
 40
1.500000
 50
0.000000
 51
180.000000
  0
ARC
  8
CSLAYER1
  6
CONTINUOUS
 62
     7
 10
344.000000
 20
171.522327
 40
1.500000
 50
180.000000
 51
360.000000
  0
LINE
  8
CSLAYER1
  6
CONTINUOUS
 62
     7
 10
339.500000
 20
171.522327
 11
339.500000
 21
198.522327
  0
LINE
  8
CSLAYER1
  6
CONTINUOUS
 62
     7
 10
336.500000
 20
171.522327
 11
336.500000
 21
198.522327
  0
ARC
  8
CSLAYER1
  6
CONTINUOUS
 62
     7
 10
338.000000
 20
198.522327
 40
1.500000
 50
0.000000
 51
180.000000
  0
ARC
  8
CSLAYER1
  6
CONTINUOUS
 62
     7
 10
338.000000
 20
171.522327
 40
1.500000
 50
180.000000
 51
360.000000
  0
LINE
  8
CSLAYER1
  6
CONTINUOUS
 62
     7
 10
333.500000
 20
171.522327
 11
333.500000
 21
198.522327
  0
LINE
  8
CSLAYER1
  6
CONTINUOUS
 62
     7
 10
330.500000
 20
171.522327
 11
330.500000
 21
198.522327
  0
ARC
  8
CSLAYER1
  6
CONTINUOUS
 62
     7
 10
332.000000
 20
198.522327
 40
1.500000
 50
0.000000
 51
180.000000
  0
ARC
  8
CSLAYER1
  6
CONTINUOUS
 62
     7
 10
332.000000
 20
171.522327
 40
1.500000
 50
180.000000
 51
360.000000
  0
LINE
  8
CSLAYER1
  6
CONTINUOUS
 62
     7
 10
327.500000
 20
171.522327
 11
327.500000
 21
198.522327
  0
LINE
  8
CSLAYER1
  6
CONTINUOUS
 62
     7
 10
324.500000
 20
171.522327
 11
324.500000
 21
198.522327
  0
ARC
  8
CSLAYER1
  6
CONTINUOUS
 62
     7
 10
326.000000
 20
198.522327
 40
1.500000
 50
0.000000
 51
180.000000
  0
ARC
  8
CSLAYER1
  6
CONTINUOUS
 62
     7
 10
326.000000
 20
171.522327
 40
1.500000
 50
180.000000
 51
360.000000
  0
LINE
  8
CSLAYER1
  6
CONTINUOUS
 62
     6
 10
103.500000
 20
95.022327
 11
103.500000
 21
213.522327
  0
LINE
  8
CSLAYER1
  6
CONTINUOUS
 62
     6
 10
101.500000
 20
215.522327
 11
63.000000
 21
215.522327
  0
LINE
  8
CSLAYER1
  6
CONTINUOUS
 62
     6
 10
63.000000
 20
215.522327
 11
63.000000
 21
214.022327
  0
LINE
  8
CSLAYER1
  6
CONTINUOUS
 62
     6
 10
102.000000
 20
214.022327
 11
63.000000
 21
214.022327
  0
LINE
  8
CSLAYER1
  6
CONTINUOUS
 62
     6
 10
102.000000
 20
214.022327
 11
102.000000
 21
95.022327
  0
LINE
  8
CSLAYER1
  6
CONTINUOUS
 62
     6
 10
102.000000
 20
95.022327
 11
103.500000
 21
95.022327
  0
ARC
  8
CSLAYER1
  6
CONTINUOUS
 62
     7
 10
101.500000
 20
213.522327
 40
2.000000
 50
0.000000
 51
90.000000
  0
LINE
  8
CSLAYER1
  6
CONTINUOUS
 62
     6
 10
75.000000
 20
159.522327
 11
93.000000
 21
159.522327
  0
LINE
  8
CSLAYER1
  6
CONTINUOUS
 62
     6
 10
93.000000
 20
159.522327
 11
93.000000
 21
109.522327
  0
LINE
  8
CSLAYER1
  6
CONTINUOUS
 62
     6
 10
93.000000
 20
109.522327
 11
75.000000
 21
109.522327
  0
LINE
  8
CSLAYER1
  6
CONTINUOUS
 62
     6
 10
75.000000
 20
109.522327
 11
75.000000
 21
159.522327
  0
LINE
  8
CSLAYER1
  6
CONTINUOUS
 62
     3
 10
75.000000
 20
154.522327
 11
93.000000
 21
154.522327
  0
LINE
  8
CSLAYER1
  6
CONTINUOUS
 62
     3
 10
75.000000
 20
149.522327
 11
93.000000
 21
149.522327
  0
LINE
  8
CSLAYER1
  6
CONTINUOUS
 62
     3
 10
75.000000
 20
144.522327
 11
93.000000
 21
144.522327
  0
LINE
  8
CSLAYER1
  6
CONTINUOUS
 62
     3
 10
75.000000
 20
139.522327
 11
93.000000
 21
139.522327
  0
LINE
  8
CSLAYER1
  6
CONTINUOUS
 62
     3
 10
75.000000
 20
134.522327
 11
93.000000
 21
134.522327
  0
LINE
  8
CSLAYER1
  6
CONTINUOUS
 62
     3
 10
75.000000
 20
129.522327
 11
93.000000
 21
129.522327
  0
LINE
  8
CSLAYER1
  6
CONTINUOUS
 62
     3
 10
75.000000
 20
124.522327
 11
93.000000
 21
124.522327
  0
LINE
  8
CSLAYER1
  6
CONTINUOUS
 62
     3
 10
75.000000
 20
119.522327
 11
93.000000
 21
119.522327
  0
LINE
  8
CSLAYER1
  6
CONTINUOUS
 62
     3
 10
75.000000
 20
114.522327
 11
93.000000
 21
114.522327
  0
LINE
  8
CSLAYER1
  6
CONTINUOUS
 62
     3
 10
81.928203
 20
159.522327
 11
81.928203
 21
109.522327
  0
LINE
  8
CSLAYER1
  6
CONTINUOUS
 62
     3
 10
91.079803
 20
159.522327
 11
91.079803
 21
109.522327
  0
LINE
  8
CSLAYER1
  6
CONTINUOUS
 62
     3
 10
86.928203
 20
159.522327
 11
86.928203
 21
109.522327
  0
ARC
  8
CSLAYER1
  6
CONTINUOUS
 62
     3
 10
87.992892
 20
157.022327
 40
1.805556
 50
-70.999198
 51
70.999198
  0
LINE
  8
CSLAYER1
  6
CONTINUOUS
 62
     3
 10
88.027337
 20
155.830692
 11
89.381565
 21
158.176284
  0
POLYLINE
  8
CSLAYER1
  6
CONTINUOUS
 62
     7
 66
     1
 10
0.0
 20
0.0
 30
0.0
  0
VERTEX
  8
CSLAYER1
  6
CONTINUOUS
 62
     7
 10
89.004003
 20
155.216771
 30
0.0
  0
VERTEX
  8
CSLAYER1
  6
CONTINUOUS
 62
     7
 10
89.117305
 20
155.223642
 30
0.0
  0
VERTEX
  8
CSLAYER1
  6
CONTINUOUS
 62
     7
 10
89.229746
 20
155.244202
 30
0.0
  0
VERTEX
  8
CSLAYER1
  6
CONTINUOUS
 62
     7
 10
89.340468
 20
155.278294
 30
0.0
  0
VERTEX
  8
CSLAYER1
  6
CONTINUOUS
 62
     7
 10
89.448629
 20
155.325660
 30
0.0
  0
VERTEX
  8
CSLAYER1
  6
CONTINUOUS
 62
     7
 10
89.553407
 20
155.385938
 30
0.0
  0
VERTEX
  8
CSLAYER1
  6
CONTINUOUS
 62
     7
 10
89.654003
 20
155.458670
 30
0.0
  0
VERTEX
  8
CSLAYER1
  6
CONTINUOUS
 62
     7
 10
89.749652
 20
155.543302
 30
0.0
  0
VERTEX
  8
CSLAYER1
  6
CONTINUOUS
 62
     7
 10
89.839627
 20
155.639191
 30
0.0
  0
VERTEX
  8
CSLAYER1
  6
CONTINUOUS
 62
     7
 10
89.923242
 20
155.745606
 30
0.0
  0
VERTEX
  8
CSLAYER1
  6
CONTINUOUS
 62
     7
 10
89.999861
 20
155.861738
 30
0.0
  0
VERTEX
  8
CSLAYER1
  6
CONTINUOUS
 62
     7
 10
90.068901
 20
155.986703
 30
0.0
  0
VERTEX
  8
CSLAYER1
  6
CONTINUOUS
 62
     7
 10
90.129836
 20
156.119549
 30
0.0
  0
VERTEX
  8
CSLAYER1
  6
CONTINUOUS
 62
     7
 10
90.182203
 20
156.259266
 30
0.0
  0
VERTEX
  8
CSLAYER1
  6
CONTINUOUS
 62
     7
 10
90.225603
 20
156.404791
 30
0.0
  0
VERTEX
  8
CSLAYER1
  6
CONTINUOUS
 62
     7
 10
90.259706
 20
156.555015
 30
0.0
  0
VERTEX
  8
CSLAYER1
  6
CONTINUOUS
 62
     7
 10
90.284253
 20
156.708796
 30
0.0
  0
VERTEX
  8
CSLAYER1
  6
CONTINUOUS
 62
     7
 10
90.299056
 20
156.864962
 30
0.0
  0
VERTEX
  8
CSLAYER1
  6
CONTINUOUS
 62
     7
 10
90.304003
 20
157.022327
 30
0.0
  0
VERTEX
  8
CSLAYER1
  6
CONTINUOUS
 62
     7
 10
90.299056
 20
157.179692
 30
0.0
  0
VERTEX
  8
CSLAYER1
  6
CONTINUOUS
 62
     7
 10
90.284253
 20
157.335858
 30
0.0
  0
VERTEX
  8
CSLAYER1
  6
CONTINUOUS
 62
     7
 10
90.259706
 20
157.489639
 30
0.0
  0
VERTEX
  8
CSLAYER1
  6
CONTINUOUS
 62
     7
 10
90.225603
 20
157.639863
 30
0.0
  0
VERTEX
  8
CSLAYER1
  6
CONTINUOUS
 62
     7
 10
90.182203
 20
157.785388
 30
0.0
  0
VERTEX
  8
CSLAYER1
  6
CONTINUOUS
 62
     7
 10
90.129836
 20
157.925105
 30
0.0
  0
VERTEX
  8
CSLAYER1
  6
CONTINUOUS
 62
     7
 10
90.068901
 20
158.057951
 30
0.0
  0
VERTEX
  8
CSLAYER1
  6
CONTINUOUS
 62
     7
 10
89.999861
 20
158.182916
 30
0.0
  0
VERTEX
  8
CSLAYER1
  6
CONTINUOUS
 62
     7
 10
89.923242
 20
158.299048
 30
0.0
  0
VERTEX
  8
CSLAYER1
  6
CONTINUOUS
 62
     7
 10
89.839627
 20
158.405463
 30
0.0
  0
VERTEX
  8
CSLAYER1
  6
CONTINUOUS
 62
     7
 10
89.749652
 20
158.501352
 30
0.0
  0
VERTEX
  8
CSLAYER1
  6
CONTINUOUS
 62
     7
 10
89.654003
 20
158.585984
 30
0.0
  0
VERTEX
  8
CSLAYER1
  6
CONTINUOUS
 62
     7
 10
89.553407
 20
158.658716
 30
0.0
  0
VERTEX
  8
CSLAYER1
  6
CONTINUOUS
 62
     7
 10
89.448629
 20
158.718994
 30
0.0
  0
VERTEX
  8
CSLAYER1
  6
CONTINUOUS
 62
     7
 10
89.340468
 20
158.766360
 30
0.0
  0
VERTEX
  8
CSLAYER1
  6
CONTINUOUS
 62
     7
 10
89.229746
 20
158.800452
 30
0.0
  0
VERTEX
  8
CSLAYER1
  6
CONTINUOUS
 62
     7
 10
89.117305
 20
158.821012
 30
0.0
  0
VERTEX
  8
CSLAYER1
  6
CONTINUOUS
 62
     7
 10
89.004003
 20
158.827883
 30
0.0
  0
VERTEX
  8
CSLAYER1
  6
CONTINUOUS
 62
     7
 10
88.890700
 20
158.821012
 30
0.0
  0
VERTEX
  8
CSLAYER1
  6
CONTINUOUS
 62
     7
 10
88.778260
 20
158.800452
 30
0.0
  0
VERTEX
  8
CSLAYER1
  6
CONTINUOUS
 62
     7
 10
88.667538
 20
158.766360
 30
0.0
  0
VERTEX
  8
CSLAYER1
  6
CONTINUOUS
 62
     7
 10
88.559377
 20
158.718994
 30
0.0
  0
VERTEX
  8
CSLAYER1
  6
CONTINUOUS
 62
     7
 10
88.454599
 20
158.658716
 30
0.0
  0
VERTEX
  8
CSLAYER1
  6
CONTINUOUS
 62
     7
 10
88.354003
 20
158.585984
 30
0.0
  0
VERTEX
  8
CSLAYER1
  6
CONTINUOUS
 62
     7
 10
88.258354
 20
158.501352
 30
0.0
  0
VERTEX
  8
CSLAYER1
  6
CONTINUOUS
 62
     7
 10
88.168379
 20
158.405463
 30
0.0
  0
VERTEX
  8
CSLAYER1
  6
CONTINUOUS
 62
     7
 10
88.084764
 20
158.299048
 30
0.0
  0
VERTEX
  8
CSLAYER1
  6
CONTINUOUS
 62
     7
 10
88.008145
 20
158.182916
 30
0.0
  0
VERTEX
  8
CSLAYER1
  6
CONTINUOUS
 62
     7
 10
87.939105
 20
158.057951
 30
0.0
  0
VERTEX
  8
CSLAYER1
  6
CONTINUOUS
 62
     7
 10
87.878170
 20
157.925105
 30
0.0
  0
VERTEX
  8
CSLAYER1
  6
CONTINUOUS
 62
     7
 10
87.825803
 20
157.785388
 30
0.0
  0
VERTEX
  8
CSLAYER1
  6
CONTINUOUS
 62
     7
 10
87.782403
 20
157.639863
 30
0.0
  0
VERTEX
  8
CSLAYER1
  6
CONTINUOUS
 62
     7
 10
87.748299
 20
157.489639
 30
0.0
  0
VERTEX
  8
CSLAYER1
  6
CONTINUOUS
 62
     7
 10
87.723753
 20
157.335858
 30
0.0
  0
VERTEX
  8
CSLAYER1
  6
CONTINUOUS
 62
     7
 10
87.708950
 20
157.179692
 30
0.0
  0
VERTEX
  8
CSLAYER1
  6
CONTINUOUS
 62
     7
 10
87.704003
 20
157.022327
 30
0.0
  0
VERTEX
  8
CSLAYER1
  6
CONTINUOUS
 62
     7
 10
87.708950
 20
156.864962
 30
0.0
  0
VERTEX
  8
CSLAYER1
  6
CONTINUOUS
 62
     7
 10
87.723753
 20
156.708796
 30
0.0
  0
VERTEX
  8
CSLAYER1
  6
CONTINUOUS
 62
     7
 10
87.748299
 20
156.555015
 30
0.0
  0
VERTEX
  8
CSLAYER1
  6
CONTINUOUS
 62
     7
 10
87.782403
 20
156.404791
 30
0.0
  0
VERTEX
  8
CSLAYER1
  6
CONTINUOUS
 62
     7
 10
87.825803
 20
156.259266
 30
0.0
  0
VERTEX
  8
CSLAYER1
  6
CONTINUOUS
 62
     7
 10
87.878170
 20
156.119549
 30
0.0
  0
VERTEX
  8
CSLAYER1
  6
CONTINUOUS
 62
     7
 10
87.939105
 20
155.986703
 30
0.0
  0
VERTEX
  8
CSLAYER1
  6
CONTINUOUS
 62
     7
 10
88.008145
 20
155.861738
 30
0.0
  0
VERTEX
  8
CSLAYER1
  6
CONTINUOUS
 62
     7
 10
88.084764
 20
155.745606
 30
0.0
  0
VERTEX
  8
CSLAYER1
  6
CONTINUOUS
 62
     7
 10
88.168379
 20
155.639191
 30
0.0
  0
VERTEX
  8
CSLAYER1
  6
CONTINUOUS
 62
     7
 10
88.258354
 20
155.543302
 30
0.0
  0
VERTEX
  8
CSLAYER1
  6
CONTINUOUS
 62
     7
 10
88.354003
 20
155.458670
 30
0.0
  0
VERTEX
  8
CSLAYER1
  6
CONTINUOUS
 62
     7
 10
88.454599
 20
155.385938
 30
0.0
  0
VERTEX
  8
CSLAYER1
  6
CONTINUOUS
 62
     7
 10
88.559377
 20
155.325660
 30
0.0
  0
VERTEX
  8
CSLAYER1
  6
CONTINUOUS
 62
     7
 10
88.667538
 20
155.278294
 30
0.0
  0
VERTEX
  8
CSLAYER1
  6
CONTINUOUS
 62
     7
 10
88.778260
 20
155.244202
 30
0.0
  0
VERTEX
  8
CSLAYER1
  6
CONTINUOUS
 62
     7
 10
88.890700
 20
155.223642
 30
0.0
  0
VERTEX
  8
CSLAYER1
  6
CONTINUOUS
 62
     7
 10
89.004003
 20
155.216771
 30
0.0
  0
SEQEND
  0
ARC
  8
CSLAYER1
  6
CONTINUOUS
 62
     3
 10
87.992892
 20
152.022327
 40
1.805556
 50
-70.999198
 51
70.999198
  0
LINE
  8
CSLAYER1
  6
CONTINUOUS
 62
     3
 10
88.027337
 20
150.830692
 11
89.381565
 21
153.176284
  0
POLYLINE
  8
CSLAYER1
  6
CONTINUOUS
 62
     7
 66
     1
 10
0.0
 20
0.0
 30
0.0
  0
VERTEX
  8
CSLAYER1
  6
CONTINUOUS
 62
     7
 10
89.004003
 20
150.216771
 30
0.0
  0
VERTEX
  8
CSLAYER1
  6
CONTINUOUS
 62
     7
 10
89.117305
 20
150.223642
 30
0.0
  0
VERTEX
  8
CSLAYER1
  6
CONTINUOUS
 62
     7
 10
89.229746
 20
150.244202
 30
0.0
  0
VERTEX
  8
CSLAYER1
  6
CONTINUOUS
 62
     7
 10
89.340468
 20
150.278294
 30
0.0
  0
VERTEX
  8
CSLAYER1
  6
CONTINUOUS
 62
     7
 10
89.448629
 20
150.325660
 30
0.0
  0
VERTEX
  8
CSLAYER1
  6
CONTINUOUS
 62
     7
 10
89.553407
 20
150.385938
 30
0.0
  0
VERTEX
  8
CSLAYER1
  6
CONTINUOUS
 62
     7
 10
89.654003
 20
150.458670
 30
0.0
  0
VERTEX
  8
CSLAYER1
  6
CONTINUOUS
 62
     7
 10
89.749652
 20
150.543302
 30
0.0
  0
VERTEX
  8
CSLAYER1
  6
CONTINUOUS
 62
     7
 10
89.839627
 20
150.639191
 30
0.0
  0
VERTEX
  8
CSLAYER1
  6
CONTINUOUS
 62
     7
 10
89.923242
 20
150.745606
 30
0.0
  0
VERTEX
  8
CSLAYER1
  6
CONTINUOUS
 62
     7
 10
89.999861
 20
150.861738
 30
0.0
  0
VERTEX
  8
CSLAYER1
  6
CONTINUOUS
 62
     7
 10
90.068901
 20
150.986703
 30
0.0
  0
VERTEX
  8
CSLAYER1
  6
CONTINUOUS
 62
     7
 10
90.129836
 20
151.119549
 30
0.0
  0
VERTEX
  8
CSLAYER1
  6
CONTINUOUS
 62
     7
 10
90.182203
 20
151.259266
 30
0.0
  0
VERTEX
  8
CSLAYER1
  6
CONTINUOUS
 62
     7
 10
90.225603
 20
151.404791
 30
0.0
  0
VERTEX
  8
CSLAYER1
  6
CONTINUOUS
 62
     7
 10
90.259706
 20
151.555015
 30
0.0
  0
VERTEX
  8
CSLAYER1
  6
CONTINUOUS
 62
     7
 10
90.284253
 20
151.708796
 30
0.0
  0
VERTEX
  8
CSLAYER1
  6
CONTINUOUS
 62
     7
 10
90.299056
 20
151.864962
 30
0.0
  0
VERTEX
  8
CSLAYER1
  6
CONTINUOUS
 62
     7
 10
90.304003
 20
152.022327
 30
0.0
  0
VERTEX
  8
CSLAYER1
  6
CONTINUOUS
 62
     7
 10
90.299056
 20
152.179692
 30
0.0
  0
VERTEX
  8
CSLAYER1
  6
CONTINUOUS
 62
     7
 10
90.284253
 20
152.335858
 30
0.0
  0
VERTEX
  8
CSLAYER1
  6
CONTINUOUS
 62
     7
 10
90.259706
 20
152.489639
 30
0.0
  0
VERTEX
  8
CSLAYER1
  6
CONTINUOUS
 62
     7
 10
90.225603
 20
152.639863
 30
0.0
  0
VERTEX
  8
CSLAYER1
  6
CONTINUOUS
 62
     7
 10
90.182203
 20
152.785388
 30
0.0
  0
VERTEX
  8
CSLAYER1
  6
CONTINUOUS
 62
     7
 10
90.129836
 20
152.925105
 30
0.0
  0
VERTEX
  8
CSLAYER1
  6
CONTINUOUS
 62
     7
 10
90.068901
 20
153.057951
 30
0.0
  0
VERTEX
  8
CSLAYER1
  6
CONTINUOUS
 62
     7
 10
89.999861
 20
153.182916
 30
0.0
  0
VERTEX
  8
CSLAYER1
  6
CONTINUOUS
 62
     7
 10
89.923242
 20
153.299048
 30
0.0
  0
VERTEX
  8
CSLAYER1
  6
CONTINUOUS
 62
     7
 10
89.839627
 20
153.405463
 30
0.0
  0
VERTEX
  8
CSLAYER1
  6
CONTINUOUS
 62
     7
 10
89.749652
 20
153.501352
 30
0.0
  0
VERTEX
  8
CSLAYER1
  6
CONTINUOUS
 62
     7
 10
89.654003
 20
153.585984
 30
0.0
  0
VERTEX
  8
CSLAYER1
  6
CONTINUOUS
 62
     7
 10
89.553407
 20
153.658716
 30
0.0
  0
VERTEX
  8
CSLAYER1
  6
CONTINUOUS
 62
     7
 10
89.448629
 20
153.718994
 30
0.0
  0
VERTEX
  8
CSLAYER1
  6
CONTINUOUS
 62
     7
 10
89.340468
 20
153.766360
 30
0.0
  0
VERTEX
  8
CSLAYER1
  6
CONTINUOUS
 62
     7
 10
89.229746
 20
153.800452
 30
0.0
  0
VERTEX
  8
CSLAYER1
  6
CONTINUOUS
 62
     7
 10
89.117305
 20
153.821012
 30
0.0
  0
VERTEX
  8
CSLAYER1
  6
CONTINUOUS
 62
     7
 10
89.004003
 20
153.827883
 30
0.0
  0
VERTEX
  8
CSLAYER1
  6
CONTINUOUS
 62
     7
 10
88.890700
 20
153.821012
 30
0.0
  0
VERTEX
  8
CSLAYER1
  6
CONTINUOUS
 62
     7
 10
88.778260
 20
153.800452
 30
0.0
  0
VERTEX
  8
CSLAYER1
  6
CONTINUOUS
 62
     7
 10
88.667538
 20
153.766360
 30
0.0
  0
VERTEX
  8
CSLAYER1
  6
CONTINUOUS
 62
     7
 10
88.559377
 20
153.718994
 30
0.0
  0
VERTEX
  8
CSLAYER1
  6
CONTINUOUS
 62
     7
 10
88.454599
 20
153.658716
 30
0.0
  0
VERTEX
  8
CSLAYER1
  6
CONTINUOUS
 62
     7
 10
88.354003
 20
153.585984
 30
0.0
  0
VERTEX
  8
CSLAYER1
  6
CONTINUOUS
 62
     7
 10
88.258354
 20
153.501352
 30
0.0
  0
VERTEX
  8
CSLAYER1
  6
CONTINUOUS
 62
     7
 10
88.168379
 20
153.405463
 30
0.0
  0
VERTEX
  8
CSLAYER1
  6
CONTINUOUS
 62
     7
 10
88.084764
 20
153.299048
 30
0.0
  0
VERTEX
  8
CSLAYER1
  6
CONTINUOUS
 62
     7
 10
88.008145
 20
153.182916
 30
0.0
  0
VERTEX
  8
CSLAYER1
  6
CONTINUOUS
 62
     7
 10
87.939105
 20
153.057951
 30
0.0
  0
VERTEX
  8
CSLAYER1
  6
CONTINUOUS
 62
     7
 10
87.878170
 20
152.925105
 30
0.0
  0
VERTEX
  8
CSLAYER1
  6
CONTINUOUS
 62
     7
 10
87.825803
 20
152.785388
 30
0.0
  0
VERTEX
  8
CSLAYER1
  6
CONTINUOUS
 62
     7
 10
87.782403
 20
152.639863
 30
0.0
  0
VERTEX
  8
CSLAYER1
  6
CONTINUOUS
 62
     7
 10
87.748299
 20
152.489639
 30
0.0
  0
VERTEX
  8
CSLAYER1
  6
CONTINUOUS
 62
     7
 10
87.723753
 20
152.335858
 30
0.0
  0
VERTEX
  8
CSLAYER1
  6
CONTINUOUS
 62
     7
 10
87.708950
 20
152.179692
 30
0.0
  0
VERTEX
  8
CSLAYER1
  6
CONTINUOUS
 62
     7
 10
87.704003
 20
152.022327
 30
0.0
  0
VERTEX
  8
CSLAYER1
  6
CONTINUOUS
 62
     7
 10
87.708950
 20
151.864962
 30
0.0
  0
VERTEX
  8
CSLAYER1
  6
CONTINUOUS
 62
     7
 10
87.723753
 20
151.708796
 30
0.0
  0
VERTEX
  8
CSLAYER1
  6
CONTINUOUS
 62
     7
 10
87.748299
 20
151.555015
 30
0.0
  0
VERTEX
  8
CSLAYER1
  6
CONTINUOUS
 62
     7
 10
87.782403
 20
151.404791
 30
0.0
  0
VERTEX
  8
CSLAYER1
  6
CONTINUOUS
 62
     7
 10
87.825803
 20
151.259266
 30
0.0
  0
VERTEX
  8
CSLAYER1
  6
CONTINUOUS
 62
     7
 10
87.878170
 20
151.119549
 30
0.0
  0
VERTEX
  8
CSLAYER1
  6
CONTINUOUS
 62
     7
 10
87.939105
 20
150.986703
 30
0.0
  0
VERTEX
  8
CSLAYER1
  6
CONTINUOUS
 62
     7
 10
88.008145
 20
150.861738
 30
0.0
  0
VERTEX
  8
CSLAYER1
  6
CONTINUOUS
 62
     7
 10
88.084764
 20
150.745606
 30
0.0
  0
VERTEX
  8
CSLAYER1
  6
CONTINUOUS
 62
     7
 10
88.168379
 20
150.639191
 30
0.0
  0
VERTEX
  8
CSLAYER1
  6
CONTINUOUS
 62
     7
 10
88.258354
 20
150.543302
 30
0.0
  0
VERTEX
  8
CSLAYER1
  6
CONTINUOUS
 62
     7
 10
88.354003
 20
150.458670
 30
0.0
  0
VERTEX
  8
CSLAYER1
  6
CONTINUOUS
 62
     7
 10
88.454599
 20
150.385938
 30
0.0
  0
VERTEX
  8
CSLAYER1
  6
CONTINUOUS
 62
     7
 10
88.559377
 20
150.325660
 30
0.0
  0
VERTEX
  8
CSLAYER1
  6
CONTINUOUS
 62
     7
 10
88.667538
 20
150.278294
 30
0.0
  0
VERTEX
  8
CSLAYER1
  6
CONTINUOUS
 62
     7
 10
88.778260
 20
150.244202
 30
0.0
  0
VERTEX
  8
CSLAYER1
  6
CONTINUOUS
 62
     7
 10
88.890700
 20
150.223642
 30
0.0
  0
VERTEX
  8
CSLAYER1
  6
CONTINUOUS
 62
     7
 10
89.004003
 20
150.216771
 30
0.0
  0
SEQEND
  0
ARC
  8
CSLAYER1
  6
CONTINUOUS
 62
     3
 10
87.992892
 20
147.022327
 40
1.805556
 50
-70.999198
 51
70.999198
  0
LINE
  8
CSLAYER1
  6
CONTINUOUS
 62
     3
 10
88.027337
 20
145.830692
 11
89.381565
 21
148.176284
  0
POLYLINE
  8
CSLAYER1
  6
CONTINUOUS
 62
     7
 66
     1
 10
0.0
 20
0.0
 30
0.0
  0
VERTEX
  8
CSLAYER1
  6
CONTINUOUS
 62
     7
 10
89.004003
 20
145.216771
 30
0.0
  0
VERTEX
  8
CSLAYER1
  6
CONTINUOUS
 62
     7
 10
89.117305
 20
145.223642
 30
0.0
  0
VERTEX
  8
CSLAYER1
  6
CONTINUOUS
 62
     7
 10
89.229746
 20
145.244202
 30
0.0
  0
VERTEX
  8
CSLAYER1
  6
CONTINUOUS
 62
     7
 10
89.340468
 20
145.278294
 30
0.0
  0
VERTEX
  8
CSLAYER1
  6
CONTINUOUS
 62
     7
 10
89.448629
 20
145.325660
 30
0.0
  0
VERTEX
  8
CSLAYER1
  6
CONTINUOUS
 62
     7
 10
89.553407
 20
145.385938
 30
0.0
  0
VERTEX
  8
CSLAYER1
  6
CONTINUOUS
 62
     7
 10
89.654003
 20
145.458670
 30
0.0
  0
VERTEX
  8
CSLAYER1
  6
CONTINUOUS
 62
     7
 10
89.749652
 20
145.543302
 30
0.0
  0
VERTEX
  8
CSLAYER1
  6
CONTINUOUS
 62
     7
 10
89.839627
 20
145.639191
 30
0.0
  0
VERTEX
  8
CSLAYER1
  6
CONTINUOUS
 62
     7
 10
89.923242
 20
145.745606
 30
0.0
  0
VERTEX
  8
CSLAYER1
  6
CONTINUOUS
 62
     7
 10
89.999861
 20
145.861738
 30
0.0
  0
VERTEX
  8
CSLAYER1
  6
CONTINUOUS
 62
     7
 10
90.068901
 20
145.986703
 30
0.0
  0
VERTEX
  8
CSLAYER1
  6
CONTINUOUS
 62
     7
 10
90.129836
 20
146.119549
 30
0.0
  0
VERTEX
  8
CSLAYER1
  6
CONTINUOUS
 62
     7
 10
90.182203
 20
146.259266
 30
0.0
  0
VERTEX
  8
CSLAYER1
  6
CONTINUOUS
 62
     7
 10
90.225603
 20
146.404791
 30
0.0
  0
VERTEX
  8
CSLAYER1
  6
CONTINUOUS
 62
     7
 10
90.259706
 20
146.555015
 30
0.0
  0
VERTEX
  8
CSLAYER1
  6
CONTINUOUS
 62
     7
 10
90.284253
 20
146.708796
 30
0.0
  0
VERTEX
  8
CSLAYER1
  6
CONTINUOUS
 62
     7
 10
90.299056
 20
146.864962
 30
0.0
  0
VERTEX
  8
CSLAYER1
  6
CONTINUOUS
 62
     7
 10
90.304003
 20
147.022327
 30
0.0
  0
VERTEX
  8
CSLAYER1
  6
CONTINUOUS
 62
     7
 10
90.299056
 20
147.179692
 30
0.0
  0
VERTEX
  8
CSLAYER1
  6
CONTINUOUS
 62
     7
 10
90.284253
 20
147.335858
 30
0.0
  0
VERTEX
  8
CSLAYER1
  6
CONTINUOUS
 62
     7
 10
90.259706
 20
147.489639
 30
0.0
  0
VERTEX
  8
CSLAYER1
  6
CONTINUOUS
 62
     7
 10
90.225603
 20
147.639863
 30
0.0
  0
VERTEX
  8
CSLAYER1
  6
CONTINUOUS
 62
     7
 10
90.182203
 20
147.785388
 30
0.0
  0
VERTEX
  8
CSLAYER1
  6
CONTINUOUS
 62
     7
 10
90.129836
 20
147.925105
 30
0.0
  0
VERTEX
  8
CSLAYER1
  6
CONTINUOUS
 62
     7
 10
90.068901
 20
148.057951
 30
0.0
  0
VERTEX
  8
CSLAYER1
  6
CONTINUOUS
 62
     7
 10
89.999861
 20
148.182916
 30
0.0
  0
VERTEX
  8
CSLAYER1
  6
CONTINUOUS
 62
     7
 10
89.923242
 20
148.299048
 30
0.0
  0
VERTEX
  8
CSLAYER1
  6
CONTINUOUS
 62
     7
 10
89.839627
 20
148.405463
 30
0.0
  0
VERTEX
  8
CSLAYER1
  6
CONTINUOUS
 62
     7
 10
89.749652
 20
148.501352
 30
0.0
  0
VERTEX
  8
CSLAYER1
  6
CONTINUOUS
 62
     7
 10
89.654003
 20
148.585984
 30
0.0
  0
VERTEX
  8
CSLAYER1
  6
CONTINUOUS
 62
     7
 10
89.553407
 20
148.658716
 30
0.0
  0
VERTEX
  8
CSLAYER1
  6
CONTINUOUS
 62
     7
 10
89.448629
 20
148.718994
 30
0.0
  0
VERTEX
  8
CSLAYER1
  6
CONTINUOUS
 62
     7
 10
89.340468
 20
148.766360
 30
0.0
  0
VERTEX
  8
CSLAYER1
  6
CONTINUOUS
 62
     7
 10
89.229746
 20
148.800452
 30
0.0
  0
VERTEX
  8
CSLAYER1
  6
CONTINUOUS
 62
     7
 10
89.117305
 20
148.821012
 30
0.0
  0
VERTEX
  8
CSLAYER1
  6
CONTINUOUS
 62
     7
 10
89.004003
 20
148.827883
 30
0.0
  0
VERTEX
  8
CSLAYER1
  6
CONTINUOUS
 62
     7
 10
88.890700
 20
148.821012
 30
0.0
  0
VERTEX
  8
CSLAYER1
  6
CONTINUOUS
 62
     7
 10
88.778260
 20
148.800452
 30
0.0
  0
VERTEX
  8
CSLAYER1
  6
CONTINUOUS
 62
     7
 10
88.667538
 20
148.766360
 30
0.0
  0
VERTEX
  8
CSLAYER1
  6
CONTINUOUS
 62
     7
 10
88.559377
 20
148.718994
 30
0.0
  0
VERTEX
  8
CSLAYER1
  6
CONTINUOUS
 62
     7
 10
88.454599
 20
148.658716
 30
0.0
  0
VERTEX
  8
CSLAYER1
  6
CONTINUOUS
 62
     7
 10
88.354003
 20
148.585984
 30
0.0
  0
VERTEX
  8
CSLAYER1
  6
CONTINUOUS
 62
     7
 10
88.258354
 20
148.501352
 30
0.0
  0
VERTEX
  8
CSLAYER1
  6
CONTINUOUS
 62
     7
 10
88.168379
 20
148.405463
 30
0.0
  0
VERTEX
  8
CSLAYER1
  6
CONTINUOUS
 62
     7
 10
88.084764
 20
148.299048
 30
0.0
  0
VERTEX
  8
CSLAYER1
  6
CONTINUOUS
 62
     7
 10
88.008145
 20
148.182916
 30
0.0
  0
VERTEX
  8
CSLAYER1
  6
CONTINUOUS
 62
     7
 10
87.939105
 20
148.057951
 30
0.0
  0
VERTEX
  8
CSLAYER1
  6
CONTINUOUS
 62
     7
 10
87.878170
 20
147.925105
 30
0.0
  0
VERTEX
  8
CSLAYER1
  6
CONTINUOUS
 62
     7
 10
87.825803
 20
147.785388
 30
0.0
  0
VERTEX
  8
CSLAYER1
  6
CONTINUOUS
 62
     7
 10
87.782403
 20
147.639863
 30
0.0
  0
VERTEX
  8
CSLAYER1
  6
CONTINUOUS
 62
     7
 10
87.748299
 20
147.489639
 30
0.0
  0
VERTEX
  8
CSLAYER1
  6
CONTINUOUS
 62
     7
 10
87.723753
 20
147.335858
 30
0.0
  0
VERTEX
  8
CSLAYER1
  6
CONTINUOUS
 62
     7
 10
87.708950
 20
147.179692
 30
0.0
  0
VERTEX
  8
CSLAYER1
  6
CONTINUOUS
 62
     7
 10
87.704003
 20
147.022327
 30
0.0
  0
VERTEX
  8
CSLAYER1
  6
CONTINUOUS
 62
     7
 10
87.708950
 20
146.864962
 30
0.0
  0
VERTEX
  8
CSLAYER1
  6
CONTINUOUS
 62
     7
 10
87.723753
 20
146.708796
 30
0.0
  0
VERTEX
  8
CSLAYER1
  6
CONTINUOUS
 62
     7
 10
87.748299
 20
146.555015
 30
0.0
  0
VERTEX
  8
CSLAYER1
  6
CONTINUOUS
 62
     7
 10
87.782403
 20
146.404791
 30
0.0
  0
VERTEX
  8
CSLAYER1
  6
CONTINUOUS
 62
     7
 10
87.825803
 20
146.259266
 30
0.0
  0
VERTEX
  8
CSLAYER1
  6
CONTINUOUS
 62
     7
 10
87.878170
 20
146.119549
 30
0.0
  0
VERTEX
  8
CSLAYER1
  6
CONTINUOUS
 62
     7
 10
87.939105
 20
145.986703
 30
0.0
  0
VERTEX
  8
CSLAYER1
  6
CONTINUOUS
 62
     7
 10
88.008145
 20
145.861738
 30
0.0
  0
VERTEX
  8
CSLAYER1
  6
CONTINUOUS
 62
     7
 10
88.084764
 20
145.745606
 30
0.0
  0
VERTEX
  8
CSLAYER1
  6
CONTINUOUS
 62
     7
 10
88.168379
 20
145.639191
 30
0.0
  0
VERTEX
  8
CSLAYER1
  6
CONTINUOUS
 62
     7
 10
88.258354
 20
145.543302
 30
0.0
  0
VERTEX
  8
CSLAYER1
  6
CONTINUOUS
 62
     7
 10
88.354003
 20
145.458670
 30
0.0
  0
VERTEX
  8
CSLAYER1
  6
CONTINUOUS
 62
     7
 10
88.454599
 20
145.385938
 30
0.0
  0
VERTEX
  8
CSLAYER1
  6
CONTINUOUS
 62
     7
 10
88.559377
 20
145.325660
 30
0.0
  0
VERTEX
  8
CSLAYER1
  6
CONTINUOUS
 62
     7
 10
88.667538
 20
145.278294
 30
0.0
  0
VERTEX
  8
CSLAYER1
  6
CONTINUOUS
 62
     7
 10
88.778260
 20
145.244202
 30
0.0
  0
VERTEX
  8
CSLAYER1
  6
CONTINUOUS
 62
     7
 10
88.890700
 20
145.223642
 30
0.0
  0
VERTEX
  8
CSLAYER1
  6
CONTINUOUS
 62
     7
 10
89.004003
 20
145.216771
 30
0.0
  0
SEQEND
  0
ARC
  8
CSLAYER1
  6
CONTINUOUS
 62
     3
 10
87.992892
 20
142.022327
 40
1.805556
 50
-70.999198
 51
70.999198
  0
LINE
  8
CSLAYER1
  6
CONTINUOUS
 62
     3
 10
88.027337
 20
140.830692
 11
89.381565
 21
143.176284
  0
POLYLINE
  8
CSLAYER1
  6
CONTINUOUS
 62
     7
 66
     1
 10
0.0
 20
0.0
 30
0.0
  0
VERTEX
  8
CSLAYER1
  6
CONTINUOUS
 62
     7
 10
89.004003
 20
140.216771
 30
0.0
  0
VERTEX
  8
CSLAYER1
  6
CONTINUOUS
 62
     7
 10
89.117305
 20
140.223642
 30
0.0
  0
VERTEX
  8
CSLAYER1
  6
CONTINUOUS
 62
     7
 10
89.229746
 20
140.244202
 30
0.0
  0
VERTEX
  8
CSLAYER1
  6
CONTINUOUS
 62
     7
 10
89.340468
 20
140.278294
 30
0.0
  0
VERTEX
  8
CSLAYER1
  6
CONTINUOUS
 62
     7
 10
89.448629
 20
140.325660
 30
0.0
  0
VERTEX
  8
CSLAYER1
  6
CONTINUOUS
 62
     7
 10
89.553407
 20
140.385938
 30
0.0
  0
VERTEX
  8
CSLAYER1
  6
CONTINUOUS
 62
     7
 10
89.654003
 20
140.458670
 30
0.0
  0
VERTEX
  8
CSLAYER1
  6
CONTINUOUS
 62
     7
 10
89.749652
 20
140.543302
 30
0.0
  0
VERTEX
  8
CSLAYER1
  6
CONTINUOUS
 62
     7
 10
89.839627
 20
140.639191
 30
0.0
  0
VERTEX
  8
CSLAYER1
  6
CONTINUOUS
 62
     7
 10
89.923242
 20
140.745606
 30
0.0
  0
VERTEX
  8
CSLAYER1
  6
CONTINUOUS
 62
     7
 10
89.999861
 20
140.861738
 30
0.0
  0
VERTEX
  8
CSLAYER1
  6
CONTINUOUS
 62
     7
 10
90.068901
 20
140.986703
 30
0.0
  0
VERTEX
  8
CSLAYER1
  6
CONTINUOUS
 62
     7
 10
90.129836
 20
141.119549
 30
0.0
  0
VERTEX
  8
CSLAYER1
  6
CONTINUOUS
 62
     7
 10
90.182203
 20
141.259266
 30
0.0
  0
VERTEX
  8
CSLAYER1
  6
CONTINUOUS
 62
     7
 10
90.225603
 20
141.404791
 30
0.0
  0
VERTEX
  8
CSLAYER1
  6
CONTINUOUS
 62
     7
 10
90.259706
 20
141.555015
 30
0.0
  0
VERTEX
  8
CSLAYER1
  6
CONTINUOUS
 62
     7
 10
90.284253
 20
141.708796
 30
0.0
  0
VERTEX
  8
CSLAYER1
  6
CONTINUOUS
 62
     7
 10
90.299056
 20
141.864962
 30
0.0
  0
VERTEX
  8
CSLAYER1
  6
CONTINUOUS
 62
     7
 10
90.304003
 20
142.022327
 30
0.0
  0
VERTEX
  8
CSLAYER1
  6
CONTINUOUS
 62
     7
 10
90.299056
 20
142.179692
 30
0.0
  0
VERTEX
  8
CSLAYER1
  6
CONTINUOUS
 62
     7
 10
90.284253
 20
142.335858
 30
0.0
  0
VERTEX
  8
CSLAYER1
  6
CONTINUOUS
 62
     7
 10
90.259706
 20
142.489639
 30
0.0
  0
VERTEX
  8
CSLAYER1
  6
CONTINUOUS
 62
     7
 10
90.225603
 20
142.639863
 30
0.0
  0
VERTEX
  8
CSLAYER1
  6
CONTINUOUS
 62
     7
 10
90.182203
 20
142.785388
 30
0.0
  0
VERTEX
  8
CSLAYER1
  6
CONTINUOUS
 62
     7
 10
90.129836
 20
142.925105
 30
0.0
  0
VERTEX
  8
CSLAYER1
  6
CONTINUOUS
 62
     7
 10
90.068901
 20
143.057951
 30
0.0
  0
VERTEX
  8
CSLAYER1
  6
CONTINUOUS
 62
     7
 10
89.999861
 20
143.182916
 30
0.0
  0
VERTEX
  8
CSLAYER1
  6
CONTINUOUS
 62
     7
 10
89.923242
 20
143.299048
 30
0.0
  0
VERTEX
  8
CSLAYER1
  6
CONTINUOUS
 62
     7
 10
89.839627
 20
143.405463
 30
0.0
  0
VERTEX
  8
CSLAYER1
  6
CONTINUOUS
 62
     7
 10
89.749652
 20
143.501352
 30
0.0
  0
VERTEX
  8
CSLAYER1
  6
CONTINUOUS
 62
     7
 10
89.654003
 20
143.585984
 30
0.0
  0
VERTEX
  8
CSLAYER1
  6
CONTINUOUS
 62
     7
 10
89.553407
 20
143.658716
 30
0.0
  0
VERTEX
  8
CSLAYER1
  6
CONTINUOUS
 62
     7
 10
89.448629
 20
143.718994
 30
0.0
  0
VERTEX
  8
CSLAYER1
  6
CONTINUOUS
 62
     7
 10
89.340468
 20
143.766360
 30
0.0
  0
VERTEX
  8
CSLAYER1
  6
CONTINUOUS
 62
     7
 10
89.229746
 20
143.800452
 30
0.0
  0
VERTEX
  8
CSLAYER1
  6
CONTINUOUS
 62
     7
 10
89.117305
 20
143.821012
 30
0.0
  0
VERTEX
  8
CSLAYER1
  6
CONTINUOUS
 62
     7
 10
89.004003
 20
143.827883
 30
0.0
  0
VERTEX
  8
CSLAYER1
  6
CONTINUOUS
 62
     7
 10
88.890700
 20
143.821012
 30
0.0
  0
VERTEX
  8
CSLAYER1
  6
CONTINUOUS
 62
     7
 10
88.778260
 20
143.800452
 30
0.0
  0
VERTEX
  8
CSLAYER1
  6
CONTINUOUS
 62
     7
 10
88.667538
 20
143.766360
 30
0.0
  0
VERTEX
  8
CSLAYER1
  6
CONTINUOUS
 62
     7
 10
88.559377
 20
143.718994
 30
0.0
  0
VERTEX
  8
CSLAYER1
  6
CONTINUOUS
 62
     7
 10
88.454599
 20
143.658716
 30
0.0
  0
VERTEX
  8
CSLAYER1
  6
CONTINUOUS
 62
     7
 10
88.354003
 20
143.585984
 30
0.0
  0
VERTEX
  8
CSLAYER1
  6
CONTINUOUS
 62
     7
 10
88.258354
 20
143.501352
 30
0.0
  0
VERTEX
  8
CSLAYER1
  6
CONTINUOUS
 62
     7
 10
88.168379
 20
143.405463
 30
0.0
  0
VERTEX
  8
CSLAYER1
  6
CONTINUOUS
 62
     7
 10
88.084764
 20
143.299048
 30
0.0
  0
VERTEX
  8
CSLAYER1
  6
CONTINUOUS
 62
     7
 10
88.008145
 20
143.182916
 30
0.0
  0
VERTEX
  8
CSLAYER1
  6
CONTINUOUS
 62
     7
 10
87.939105
 20
143.057951
 30
0.0
  0
VERTEX
  8
CSLAYER1
  6
CONTINUOUS
 62
     7
 10
87.878170
 20
142.925105
 30
0.0
  0
VERTEX
  8
CSLAYER1
  6
CONTINUOUS
 62
     7
 10
87.825803
 20
142.785388
 30
0.0
  0
VERTEX
  8
CSLAYER1
  6
CONTINUOUS
 62
     7
 10
87.782403
 20
142.639863
 30
0.0
  0
VERTEX
  8
CSLAYER1
  6
CONTINUOUS
 62
     7
 10
87.748299
 20
142.489639
 30
0.0
  0
VERTEX
  8
CSLAYER1
  6
CONTINUOUS
 62
     7
 10
87.723753
 20
142.335858
 30
0.0
  0
VERTEX
  8
CSLAYER1
  6
CONTINUOUS
 62
     7
 10
87.708950
 20
142.179692
 30
0.0
  0
VERTEX
  8
CSLAYER1
  6
CONTINUOUS
 62
     7
 10
87.704003
 20
142.022327
 30
0.0
  0
VERTEX
  8
CSLAYER1
  6
CONTINUOUS
 62
     7
 10
87.708950
 20
141.864962
 30
0.0
  0
VERTEX
  8
CSLAYER1
  6
CONTINUOUS
 62
     7
 10
87.723753
 20
141.708796
 30
0.0
  0
VERTEX
  8
CSLAYER1
  6
CONTINUOUS
 62
     7
 10
87.748299
 20
141.555015
 30
0.0
  0
VERTEX
  8
CSLAYER1
  6
CONTINUOUS
 62
     7
 10
87.782403
 20
141.404791
 30
0.0
  0
VERTEX
  8
CSLAYER1
  6
CONTINUOUS
 62
     7
 10
87.825803
 20
141.259266
 30
0.0
  0
VERTEX
  8
CSLAYER1
  6
CONTINUOUS
 62
     7
 10
87.878170
 20
141.119549
 30
0.0
  0
VERTEX
  8
CSLAYER1
  6
CONTINUOUS
 62
     7
 10
87.939105
 20
140.986703
 30
0.0
  0
VERTEX
  8
CSLAYER1
  6
CONTINUOUS
 62
     7
 10
88.008145
 20
140.861738
 30
0.0
  0
VERTEX
  8
CSLAYER1
  6
CONTINUOUS
 62
     7
 10
88.084764
 20
140.745606
 30
0.0
  0
VERTEX
  8
CSLAYER1
  6
CONTINUOUS
 62
     7
 10
88.168379
 20
140.639191
 30
0.0
  0
VERTEX
  8
CSLAYER1
  6
CONTINUOUS
 62
     7
 10
88.258354
 20
140.543302
 30
0.0
  0
VERTEX
  8
CSLAYER1
  6
CONTINUOUS
 62
     7
 10
88.354003
 20
140.458670
 30
0.0
  0
VERTEX
  8
CSLAYER1
  6
CONTINUOUS
 62
     7
 10
88.454599
 20
140.385938
 30
0.0
  0
VERTEX
  8
CSLAYER1
  6
CONTINUOUS
 62
     7
 10
88.559377
 20
140.325660
 30
0.0
  0
VERTEX
  8
CSLAYER1
  6
CONTINUOUS
 62
     7
 10
88.667538
 20
140.278294
 30
0.0
  0
VERTEX
  8
CSLAYER1
  6
CONTINUOUS
 62
     7
 10
88.778260
 20
140.244202
 30
0.0
  0
VERTEX
  8
CSLAYER1
  6
CONTINUOUS
 62
     7
 10
88.890700
 20
140.223642
 30
0.0
  0
VERTEX
  8
CSLAYER1
  6
CONTINUOUS
 62
     7
 10
89.004003
 20
140.216771
 30
0.0
  0
SEQEND
  0
ARC
  8
CSLAYER1
  6
CONTINUOUS
 62
     3
 10
87.992892
 20
137.022327
 40
1.805556
 50
-70.999198
 51
70.999198
  0
LINE
  8
CSLAYER1
  6
CONTINUOUS
 62
     3
 10
88.027337
 20
135.830692
 11
89.381565
 21
138.176284
  0
POLYLINE
  8
CSLAYER1
  6
CONTINUOUS
 62
     7
 66
     1
 10
0.0
 20
0.0
 30
0.0
  0
VERTEX
  8
CSLAYER1
  6
CONTINUOUS
 62
     7
 10
89.004003
 20
135.216771
 30
0.0
  0
VERTEX
  8
CSLAYER1
  6
CONTINUOUS
 62
     7
 10
89.117305
 20
135.223642
 30
0.0
  0
VERTEX
  8
CSLAYER1
  6
CONTINUOUS
 62
     7
 10
89.229746
 20
135.244202
 30
0.0
  0
VERTEX
  8
CSLAYER1
  6
CONTINUOUS
 62
     7
 10
89.340468
 20
135.278294
 30
0.0
  0
VERTEX
  8
CSLAYER1
  6
CONTINUOUS
 62
     7
 10
89.448629
 20
135.325660
 30
0.0
  0
VERTEX
  8
CSLAYER1
  6
CONTINUOUS
 62
     7
 10
89.553407
 20
135.385938
 30
0.0
  0
VERTEX
  8
CSLAYER1
  6
CONTINUOUS
 62
     7
 10
89.654003
 20
135.458670
 30
0.0
  0
VERTEX
  8
CSLAYER1
  6
CONTINUOUS
 62
     7
 10
89.749652
 20
135.543302
 30
0.0
  0
VERTEX
  8
CSLAYER1
  6
CONTINUOUS
 62
     7
 10
89.839627
 20
135.639191
 30
0.0
  0
VERTEX
  8
CSLAYER1
  6
CONTINUOUS
 62
     7
 10
89.923242
 20
135.745606
 30
0.0
  0
VERTEX
  8
CSLAYER1
  6
CONTINUOUS
 62
     7
 10
89.999861
 20
135.861738
 30
0.0
  0
VERTEX
  8
CSLAYER1
  6
CONTINUOUS
 62
     7
 10
90.068901
 20
135.986703
 30
0.0
  0
VERTEX
  8
CSLAYER1
  6
CONTINUOUS
 62
     7
 10
90.129836
 20
136.119549
 30
0.0
  0
VERTEX
  8
CSLAYER1
  6
CONTINUOUS
 62
     7
 10
90.182203
 20
136.259266
 30
0.0
  0
VERTEX
  8
CSLAYER1
  6
CONTINUOUS
 62
     7
 10
90.225603
 20
136.404791
 30
0.0
  0
VERTEX
  8
CSLAYER1
  6
CONTINUOUS
 62
     7
 10
90.259706
 20
136.555015
 30
0.0
  0
VERTEX
  8
CSLAYER1
  6
CONTINUOUS
 62
     7
 10
90.284253
 20
136.708796
 30
0.0
  0
VERTEX
  8
CSLAYER1
  6
CONTINUOUS
 62
     7
 10
90.299056
 20
136.864962
 30
0.0
  0
VERTEX
  8
CSLAYER1
  6
CONTINUOUS
 62
     7
 10
90.304003
 20
137.022327
 30
0.0
  0
VERTEX
  8
CSLAYER1
  6
CONTINUOUS
 62
     7
 10
90.299056
 20
137.179692
 30
0.0
  0
VERTEX
  8
CSLAYER1
  6
CONTINUOUS
 62
     7
 10
90.284253
 20
137.335858
 30
0.0
  0
VERTEX
  8
CSLAYER1
  6
CONTINUOUS
 62
     7
 10
90.259706
 20
137.489639
 30
0.0
  0
VERTEX
  8
CSLAYER1
  6
CONTINUOUS
 62
     7
 10
90.225603
 20
137.639863
 30
0.0
  0
VERTEX
  8
CSLAYER1
  6
CONTINUOUS
 62
     7
 10
90.182203
 20
137.785388
 30
0.0
  0
VERTEX
  8
CSLAYER1
  6
CONTINUOUS
 62
     7
 10
90.129836
 20
137.925105
 30
0.0
  0
VERTEX
  8
CSLAYER1
  6
CONTINUOUS
 62
     7
 10
90.068901
 20
138.057951
 30
0.0
  0
VERTEX
  8
CSLAYER1
  6
CONTINUOUS
 62
     7
 10
89.999861
 20
138.182916
 30
0.0
  0
VERTEX
  8
CSLAYER1
  6
CONTINUOUS
 62
     7
 10
89.923242
 20
138.299048
 30
0.0
  0
VERTEX
  8
CSLAYER1
  6
CONTINUOUS
 62
     7
 10
89.839627
 20
138.405463
 30
0.0
  0
VERTEX
  8
CSLAYER1
  6
CONTINUOUS
 62
     7
 10
89.749652
 20
138.501352
 30
0.0
  0
VERTEX
  8
CSLAYER1
  6
CONTINUOUS
 62
     7
 10
89.654003
 20
138.585984
 30
0.0
  0
VERTEX
  8
CSLAYER1
  6
CONTINUOUS
 62
     7
 10
89.553407
 20
138.658716
 30
0.0
  0
VERTEX
  8
CSLAYER1
  6
CONTINUOUS
 62
     7
 10
89.448629
 20
138.718994
 30
0.0
  0
VERTEX
  8
CSLAYER1
  6
CONTINUOUS
 62
     7
 10
89.340468
 20
138.766360
 30
0.0
  0
VERTEX
  8
CSLAYER1
  6
CONTINUOUS
 62
     7
 10
89.229746
 20
138.800452
 30
0.0
  0
VERTEX
  8
CSLAYER1
  6
CONTINUOUS
 62
     7
 10
89.117305
 20
138.821012
 30
0.0
  0
VERTEX
  8
CSLAYER1
  6
CONTINUOUS
 62
     7
 10
89.004003
 20
138.827883
 30
0.0
  0
VERTEX
  8
CSLAYER1
  6
CONTINUOUS
 62
     7
 10
88.890700
 20
138.821012
 30
0.0
  0
VERTEX
  8
CSLAYER1
  6
CONTINUOUS
 62
     7
 10
88.778260
 20
138.800452
 30
0.0
  0
VERTEX
  8
CSLAYER1
  6
CONTINUOUS
 62
     7
 10
88.667538
 20
138.766360
 30
0.0
  0
VERTEX
  8
CSLAYER1
  6
CONTINUOUS
 62
     7
 10
88.559377
 20
138.718994
 30
0.0
  0
VERTEX
  8
CSLAYER1
  6
CONTINUOUS
 62
     7
 10
88.454599
 20
138.658716
 30
0.0
  0
VERTEX
  8
CSLAYER1
  6
CONTINUOUS
 62
     7
 10
88.354003
 20
138.585984
 30
0.0
  0
VERTEX
  8
CSLAYER1
  6
CONTINUOUS
 62
     7
 10
88.258354
 20
138.501352
 30
0.0
  0
VERTEX
  8
CSLAYER1
  6
CONTINUOUS
 62
     7
 10
88.168379
 20
138.405463
 30
0.0
  0
VERTEX
  8
CSLAYER1
  6
CONTINUOUS
 62
     7
 10
88.084764
 20
138.299048
 30
0.0
  0
VERTEX
  8
CSLAYER1
  6
CONTINUOUS
 62
     7
 10
88.008145
 20
138.182916
 30
0.0
  0
VERTEX
  8
CSLAYER1
  6
CONTINUOUS
 62
     7
 10
87.939105
 20
138.057951
 30
0.0
  0
VERTEX
  8
CSLAYER1
  6
CONTINUOUS
 62
     7
 10
87.878170
 20
137.925105
 30
0.0
  0
VERTEX
  8
CSLAYER1
  6
CONTINUOUS
 62
     7
 10
87.825803
 20
137.785388
 30
0.0
  0
VERTEX
  8
CSLAYER1
  6
CONTINUOUS
 62
     7
 10
87.782403
 20
137.639863
 30
0.0
  0
VERTEX
  8
CSLAYER1
  6
CONTINUOUS
 62
     7
 10
87.748299
 20
137.489639
 30
0.0
  0
VERTEX
  8
CSLAYER1
  6
CONTINUOUS
 62
     7
 10
87.723753
 20
137.335858
 30
0.0
  0
VERTEX
  8
CSLAYER1
  6
CONTINUOUS
 62
     7
 10
87.708950
 20
137.179692
 30
0.0
  0
VERTEX
  8
CSLAYER1
  6
CONTINUOUS
 62
     7
 10
87.704003
 20
137.022327
 30
0.0
  0
VERTEX
  8
CSLAYER1
  6
CONTINUOUS
 62
     7
 10
87.708950
 20
136.864962
 30
0.0
  0
VERTEX
  8
CSLAYER1
  6
CONTINUOUS
 62
     7
 10
87.723753
 20
136.708796
 30
0.0
  0
VERTEX
  8
CSLAYER1
  6
CONTINUOUS
 62
     7
 10
87.748299
 20
136.555015
 30
0.0
  0
VERTEX
  8
CSLAYER1
  6
CONTINUOUS
 62
     7
 10
87.782403
 20
136.404791
 30
0.0
  0
VERTEX
  8
CSLAYER1
  6
CONTINUOUS
 62
     7
 10
87.825803
 20
136.259266
 30
0.0
  0
VERTEX
  8
CSLAYER1
  6
CONTINUOUS
 62
     7
 10
87.878170
 20
136.119549
 30
0.0
  0
VERTEX
  8
CSLAYER1
  6
CONTINUOUS
 62
     7
 10
87.939105
 20
135.986703
 30
0.0
  0
VERTEX
  8
CSLAYER1
  6
CONTINUOUS
 62
     7
 10
88.008145
 20
135.861738
 30
0.0
  0
VERTEX
  8
CSLAYER1
  6
CONTINUOUS
 62
     7
 10
88.084764
 20
135.745606
 30
0.0
  0
VERTEX
  8
CSLAYER1
  6
CONTINUOUS
 62
     7
 10
88.168379
 20
135.639191
 30
0.0
  0
VERTEX
  8
CSLAYER1
  6
CONTINUOUS
 62
     7
 10
88.258354
 20
135.543302
 30
0.0
  0
VERTEX
  8
CSLAYER1
  6
CONTINUOUS
 62
     7
 10
88.354003
 20
135.458670
 30
0.0
  0
VERTEX
  8
CSLAYER1
  6
CONTINUOUS
 62
     7
 10
88.454599
 20
135.385938
 30
0.0
  0
VERTEX
  8
CSLAYER1
  6
CONTINUOUS
 62
     7
 10
88.559377
 20
135.325660
 30
0.0
  0
VERTEX
  8
CSLAYER1
  6
CONTINUOUS
 62
     7
 10
88.667538
 20
135.278294
 30
0.0
  0
VERTEX
  8
CSLAYER1
  6
CONTINUOUS
 62
     7
 10
88.778260
 20
135.244202
 30
0.0
  0
VERTEX
  8
CSLAYER1
  6
CONTINUOUS
 62
     7
 10
88.890700
 20
135.223642
 30
0.0
  0
VERTEX
  8
CSLAYER1
  6
CONTINUOUS
 62
     7
 10
89.004003
 20
135.216771
 30
0.0
  0
SEQEND
  0
ARC
  8
CSLAYER1
  6
CONTINUOUS
 62
     3
 10
87.992892
 20
132.022327
 40
1.805556
 50
-70.999198
 51
70.999198
  0
LINE
  8
CSLAYER1
  6
CONTINUOUS
 62
     3
 10
88.027337
 20
130.830692
 11
89.381565
 21
133.176284
  0
POLYLINE
  8
CSLAYER1
  6
CONTINUOUS
 62
     7
 66
     1
 10
0.0
 20
0.0
 30
0.0
  0
VERTEX
  8
CSLAYER1
  6
CONTINUOUS
 62
     7
 10
89.004003
 20
130.216771
 30
0.0
  0
VERTEX
  8
CSLAYER1
  6
CONTINUOUS
 62
     7
 10
89.117305
 20
130.223642
 30
0.0
  0
VERTEX
  8
CSLAYER1
  6
CONTINUOUS
 62
     7
 10
89.229746
 20
130.244202
 30
0.0
  0
VERTEX
  8
CSLAYER1
  6
CONTINUOUS
 62
     7
 10
89.340468
 20
130.278294
 30
0.0
  0
VERTEX
  8
CSLAYER1
  6
CONTINUOUS
 62
     7
 10
89.448629
 20
130.325660
 30
0.0
  0
VERTEX
  8
CSLAYER1
  6
CONTINUOUS
 62
     7
 10
89.553407
 20
130.385938
 30
0.0
  0
VERTEX
  8
CSLAYER1
  6
CONTINUOUS
 62
     7
 10
89.654003
 20
130.458670
 30
0.0
  0
VERTEX
  8
CSLAYER1
  6
CONTINUOUS
 62
     7
 10
89.749652
 20
130.543302
 30
0.0
  0
VERTEX
  8
CSLAYER1
  6
CONTINUOUS
 62
     7
 10
89.839627
 20
130.639191
 30
0.0
  0
VERTEX
  8
CSLAYER1
  6
CONTINUOUS
 62
     7
 10
89.923242
 20
130.745606
 30
0.0
  0
VERTEX
  8
CSLAYER1
  6
CONTINUOUS
 62
     7
 10
89.999861
 20
130.861738
 30
0.0
  0
VERTEX
  8
CSLAYER1
  6
CONTINUOUS
 62
     7
 10
90.068901
 20
130.986703
 30
0.0
  0
VERTEX
  8
CSLAYER1
  6
CONTINUOUS
 62
     7
 10
90.129836
 20
131.119549
 30
0.0
  0
VERTEX
  8
CSLAYER1
  6
CONTINUOUS
 62
     7
 10
90.182203
 20
131.259266
 30
0.0
  0
VERTEX
  8
CSLAYER1
  6
CONTINUOUS
 62
     7
 10
90.225603
 20
131.404791
 30
0.0
  0
VERTEX
  8
CSLAYER1
  6
CONTINUOUS
 62
     7
 10
90.259706
 20
131.555015
 30
0.0
  0
VERTEX
  8
CSLAYER1
  6
CONTINUOUS
 62
     7
 10
90.284253
 20
131.708796
 30
0.0
  0
VERTEX
  8
CSLAYER1
  6
CONTINUOUS
 62
     7
 10
90.299056
 20
131.864962
 30
0.0
  0
VERTEX
  8
CSLAYER1
  6
CONTINUOUS
 62
     7
 10
90.304003
 20
132.022327
 30
0.0
  0
VERTEX
  8
CSLAYER1
  6
CONTINUOUS
 62
     7
 10
90.299056
 20
132.179692
 30
0.0
  0
VERTEX
  8
CSLAYER1
  6
CONTINUOUS
 62
     7
 10
90.284253
 20
132.335858
 30
0.0
  0
VERTEX
  8
CSLAYER1
  6
CONTINUOUS
 62
     7
 10
90.259706
 20
132.489639
 30
0.0
  0
VERTEX
  8
CSLAYER1
  6
CONTINUOUS
 62
     7
 10
90.225603
 20
132.639863
 30
0.0
  0
VERTEX
  8
CSLAYER1
  6
CONTINUOUS
 62
     7
 10
90.182203
 20
132.785388
 30
0.0
  0
VERTEX
  8
CSLAYER1
  6
CONTINUOUS
 62
     7
 10
90.129836
 20
132.925105
 30
0.0
  0
VERTEX
  8
CSLAYER1
  6
CONTINUOUS
 62
     7
 10
90.068901
 20
133.057951
 30
0.0
  0
VERTEX
  8
CSLAYER1
  6
CONTINUOUS
 62
     7
 10
89.999861
 20
133.182916
 30
0.0
  0
VERTEX
  8
CSLAYER1
  6
CONTINUOUS
 62
     7
 10
89.923242
 20
133.299048
 30
0.0
  0
VERTEX
  8
CSLAYER1
  6
CONTINUOUS
 62
     7
 10
89.839627
 20
133.405463
 30
0.0
  0
VERTEX
  8
CSLAYER1
  6
CONTINUOUS
 62
     7
 10
89.749652
 20
133.501352
 30
0.0
  0
VERTEX
  8
CSLAYER1
  6
CONTINUOUS
 62
     7
 10
89.654003
 20
133.585984
 30
0.0
  0
VERTEX
  8
CSLAYER1
  6
CONTINUOUS
 62
     7
 10
89.553407
 20
133.658716
 30
0.0
  0
VERTEX
  8
CSLAYER1
  6
CONTINUOUS
 62
     7
 10
89.448629
 20
133.718994
 30
0.0
  0
VERTEX
  8
CSLAYER1
  6
CONTINUOUS
 62
     7
 10
89.340468
 20
133.766360
 30
0.0
  0
VERTEX
  8
CSLAYER1
  6
CONTINUOUS
 62
     7
 10
89.229746
 20
133.800452
 30
0.0
  0
VERTEX
  8
CSLAYER1
  6
CONTINUOUS
 62
     7
 10
89.117305
 20
133.821012
 30
0.0
  0
VERTEX
  8
CSLAYER1
  6
CONTINUOUS
 62
     7
 10
89.004003
 20
133.827883
 30
0.0
  0
VERTEX
  8
CSLAYER1
  6
CONTINUOUS
 62
     7
 10
88.890700
 20
133.821012
 30
0.0
  0
VERTEX
  8
CSLAYER1
  6
CONTINUOUS
 62
     7
 10
88.778260
 20
133.800452
 30
0.0
  0
VERTEX
  8
CSLAYER1
  6
CONTINUOUS
 62
     7
 10
88.667538
 20
133.766360
 30
0.0
  0
VERTEX
  8
CSLAYER1
  6
CONTINUOUS
 62
     7
 10
88.559377
 20
133.718994
 30
0.0
  0
VERTEX
  8
CSLAYER1
  6
CONTINUOUS
 62
     7
 10
88.454599
 20
133.658716
 30
0.0
  0
VERTEX
  8
CSLAYER1
  6
CONTINUOUS
 62
     7
 10
88.354003
 20
133.585984
 30
0.0
  0
VERTEX
  8
CSLAYER1
  6
CONTINUOUS
 62
     7
 10
88.258354
 20
133.501352
 30
0.0
  0
VERTEX
  8
CSLAYER1
  6
CONTINUOUS
 62
     7
 10
88.168379
 20
133.405463
 30
0.0
  0
VERTEX
  8
CSLAYER1
  6
CONTINUOUS
 62
     7
 10
88.084764
 20
133.299048
 30
0.0
  0
VERTEX
  8
CSLAYER1
  6
CONTINUOUS
 62
     7
 10
88.008145
 20
133.182916
 30
0.0
  0
VERTEX
  8
CSLAYER1
  6
CONTINUOUS
 62
     7
 10
87.939105
 20
133.057951
 30
0.0
  0
VERTEX
  8
CSLAYER1
  6
CONTINUOUS
 62
     7
 10
87.878170
 20
132.925105
 30
0.0
  0
VERTEX
  8
CSLAYER1
  6
CONTINUOUS
 62
     7
 10
87.825803
 20
132.785388
 30
0.0
  0
VERTEX
  8
CSLAYER1
  6
CONTINUOUS
 62
     7
 10
87.782403
 20
132.639863
 30
0.0
  0
VERTEX
  8
CSLAYER1
  6
CONTINUOUS
 62
     7
 10
87.748299
 20
132.489639
 30
0.0
  0
VERTEX
  8
CSLAYER1
  6
CONTINUOUS
 62
     7
 10
87.723753
 20
132.335858
 30
0.0
  0
VERTEX
  8
CSLAYER1
  6
CONTINUOUS
 62
     7
 10
87.708950
 20
132.179692
 30
0.0
  0
VERTEX
  8
CSLAYER1
  6
CONTINUOUS
 62
     7
 10
87.704003
 20
132.022327
 30
0.0
  0
VERTEX
  8
CSLAYER1
  6
CONTINUOUS
 62
     7
 10
87.708950
 20
131.864962
 30
0.0
  0
VERTEX
  8
CSLAYER1
  6
CONTINUOUS
 62
     7
 10
87.723753
 20
131.708796
 30
0.0
  0
VERTEX
  8
CSLAYER1
  6
CONTINUOUS
 62
     7
 10
87.748299
 20
131.555015
 30
0.0
  0
VERTEX
  8
CSLAYER1
  6
CONTINUOUS
 62
     7
 10
87.782403
 20
131.404791
 30
0.0
  0
VERTEX
  8
CSLAYER1
  6
CONTINUOUS
 62
     7
 10
87.825803
 20
131.259266
 30
0.0
  0
VERTEX
  8
CSLAYER1
  6
CONTINUOUS
 62
     7
 10
87.878170
 20
131.119549
 30
0.0
  0
VERTEX
  8
CSLAYER1
  6
CONTINUOUS
 62
     7
 10
87.939105
 20
130.986703
 30
0.0
  0
VERTEX
  8
CSLAYER1
  6
CONTINUOUS
 62
     7
 10
88.008145
 20
130.861738
 30
0.0
  0
VERTEX
  8
CSLAYER1
  6
CONTINUOUS
 62
     7
 10
88.084764
 20
130.745606
 30
0.0
  0
VERTEX
  8
CSLAYER1
  6
CONTINUOUS
 62
     7
 10
88.168379
 20
130.639191
 30
0.0
  0
VERTEX
  8
CSLAYER1
  6
CONTINUOUS
 62
     7
 10
88.258354
 20
130.543302
 30
0.0
  0
VERTEX
  8
CSLAYER1
  6
CONTINUOUS
 62
     7
 10
88.354003
 20
130.458670
 30
0.0
  0
VERTEX
  8
CSLAYER1
  6
CONTINUOUS
 62
     7
 10
88.454599
 20
130.385938
 30
0.0
  0
VERTEX
  8
CSLAYER1
  6
CONTINUOUS
 62
     7
 10
88.559377
 20
130.325660
 30
0.0
  0
VERTEX
  8
CSLAYER1
  6
CONTINUOUS
 62
     7
 10
88.667538
 20
130.278294
 30
0.0
  0
VERTEX
  8
CSLAYER1
  6
CONTINUOUS
 62
     7
 10
88.778260
 20
130.244202
 30
0.0
  0
VERTEX
  8
CSLAYER1
  6
CONTINUOUS
 62
     7
 10
88.890700
 20
130.223642
 30
0.0
  0
VERTEX
  8
CSLAYER1
  6
CONTINUOUS
 62
     7
 10
89.004003
 20
130.216771
 30
0.0
  0
SEQEND
  0
ARC
  8
CSLAYER1
  6
CONTINUOUS
 62
     3
 10
87.992892
 20
127.022327
 40
1.805556
 50
-70.999198
 51
70.999198
  0
LINE
  8
CSLAYER1
  6
CONTINUOUS
 62
     3
 10
88.027337
 20
125.830692
 11
89.381565
 21
128.176284
  0
POLYLINE
  8
CSLAYER1
  6
CONTINUOUS
 62
     7
 66
     1
 10
0.0
 20
0.0
 30
0.0
  0
VERTEX
  8
CSLAYER1
  6
CONTINUOUS
 62
     7
 10
89.004003
 20
125.216771
 30
0.0
  0
VERTEX
  8
CSLAYER1
  6
CONTINUOUS
 62
     7
 10
89.117305
 20
125.223642
 30
0.0
  0
VERTEX
  8
CSLAYER1
  6
CONTINUOUS
 62
     7
 10
89.229746
 20
125.244202
 30
0.0
  0
VERTEX
  8
CSLAYER1
  6
CONTINUOUS
 62
     7
 10
89.340468
 20
125.278294
 30
0.0
  0
VERTEX
  8
CSLAYER1
  6
CONTINUOUS
 62
     7
 10
89.448629
 20
125.325660
 30
0.0
  0
VERTEX
  8
CSLAYER1
  6
CONTINUOUS
 62
     7
 10
89.553407
 20
125.385938
 30
0.0
  0
VERTEX
  8
CSLAYER1
  6
CONTINUOUS
 62
     7
 10
89.654003
 20
125.458670
 30
0.0
  0
VERTEX
  8
CSLAYER1
  6
CONTINUOUS
 62
     7
 10
89.749652
 20
125.543302
 30
0.0
  0
VERTEX
  8
CSLAYER1
  6
CONTINUOUS
 62
     7
 10
89.839627
 20
125.639191
 30
0.0
  0
VERTEX
  8
CSLAYER1
  6
CONTINUOUS
 62
     7
 10
89.923242
 20
125.745606
 30
0.0
  0
VERTEX
  8
CSLAYER1
  6
CONTINUOUS
 62
     7
 10
89.999861
 20
125.861738
 30
0.0
  0
VERTEX
  8
CSLAYER1
  6
CONTINUOUS
 62
     7
 10
90.068901
 20
125.986703
 30
0.0
  0
VERTEX
  8
CSLAYER1
  6
CONTINUOUS
 62
     7
 10
90.129836
 20
126.119549
 30
0.0
  0
VERTEX
  8
CSLAYER1
  6
CONTINUOUS
 62
     7
 10
90.182203
 20
126.259266
 30
0.0
  0
VERTEX
  8
CSLAYER1
  6
CONTINUOUS
 62
     7
 10
90.225603
 20
126.404791
 30
0.0
  0
VERTEX
  8
CSLAYER1
  6
CONTINUOUS
 62
     7
 10
90.259706
 20
126.555015
 30
0.0
  0
VERTEX
  8
CSLAYER1
  6
CONTINUOUS
 62
     7
 10
90.284253
 20
126.708796
 30
0.0
  0
VERTEX
  8
CSLAYER1
  6
CONTINUOUS
 62
     7
 10
90.299056
 20
126.864962
 30
0.0
  0
VERTEX
  8
CSLAYER1
  6
CONTINUOUS
 62
     7
 10
90.304003
 20
127.022327
 30
0.0
  0
VERTEX
  8
CSLAYER1
  6
CONTINUOUS
 62
     7
 10
90.299056
 20
127.179692
 30
0.0
  0
VERTEX
  8
CSLAYER1
  6
CONTINUOUS
 62
     7
 10
90.284253
 20
127.335858
 30
0.0
  0
VERTEX
  8
CSLAYER1
  6
CONTINUOUS
 62
     7
 10
90.259706
 20
127.489639
 30
0.0
  0
VERTEX
  8
CSLAYER1
  6
CONTINUOUS
 62
     7
 10
90.225603
 20
127.639863
 30
0.0
  0
VERTEX
  8
CSLAYER1
  6
CONTINUOUS
 62
     7
 10
90.182203
 20
127.785388
 30
0.0
  0
VERTEX
  8
CSLAYER1
  6
CONTINUOUS
 62
     7
 10
90.129836
 20
127.925105
 30
0.0
  0
VERTEX
  8
CSLAYER1
  6
CONTINUOUS
 62
     7
 10
90.068901
 20
128.057951
 30
0.0
  0
VERTEX
  8
CSLAYER1
  6
CONTINUOUS
 62
     7
 10
89.999861
 20
128.182916
 30
0.0
  0
VERTEX
  8
CSLAYER1
  6
CONTINUOUS
 62
     7
 10
89.923242
 20
128.299048
 30
0.0
  0
VERTEX
  8
CSLAYER1
  6
CONTINUOUS
 62
     7
 10
89.839627
 20
128.405463
 30
0.0
  0
VERTEX
  8
CSLAYER1
  6
CONTINUOUS
 62
     7
 10
89.749652
 20
128.501352
 30
0.0
  0
VERTEX
  8
CSLAYER1
  6
CONTINUOUS
 62
     7
 10
89.654003
 20
128.585984
 30
0.0
  0
VERTEX
  8
CSLAYER1
  6
CONTINUOUS
 62
     7
 10
89.553407
 20
128.658716
 30
0.0
  0
VERTEX
  8
CSLAYER1
  6
CONTINUOUS
 62
     7
 10
89.448629
 20
128.718994
 30
0.0
  0
VERTEX
  8
CSLAYER1
  6
CONTINUOUS
 62
     7
 10
89.340468
 20
128.766360
 30
0.0
  0
VERTEX
  8
CSLAYER1
  6
CONTINUOUS
 62
     7
 10
89.229746
 20
128.800452
 30
0.0
  0
VERTEX
  8
CSLAYER1
  6
CONTINUOUS
 62
     7
 10
89.117305
 20
128.821012
 30
0.0
  0
VERTEX
  8
CSLAYER1
  6
CONTINUOUS
 62
     7
 10
89.004003
 20
128.827883
 30
0.0
  0
VERTEX
  8
CSLAYER1
  6
CONTINUOUS
 62
     7
 10
88.890700
 20
128.821012
 30
0.0
  0
VERTEX
  8
CSLAYER1
  6
CONTINUOUS
 62
     7
 10
88.778260
 20
128.800452
 30
0.0
  0
VERTEX
  8
CSLAYER1
  6
CONTINUOUS
 62
     7
 10
88.667538
 20
128.766360
 30
0.0
  0
VERTEX
  8
CSLAYER1
  6
CONTINUOUS
 62
     7
 10
88.559377
 20
128.718994
 30
0.0
  0
VERTEX
  8
CSLAYER1
  6
CONTINUOUS
 62
     7
 10
88.454599
 20
128.658716
 30
0.0
  0
VERTEX
  8
CSLAYER1
  6
CONTINUOUS
 62
     7
 10
88.354003
 20
128.585984
 30
0.0
  0
VERTEX
  8
CSLAYER1
  6
CONTINUOUS
 62
     7
 10
88.258354
 20
128.501352
 30
0.0
  0
VERTEX
  8
CSLAYER1
  6
CONTINUOUS
 62
     7
 10
88.168379
 20
128.405463
 30
0.0
  0
VERTEX
  8
CSLAYER1
  6
CONTINUOUS
 62
     7
 10
88.084764
 20
128.299048
 30
0.0
  0
VERTEX
  8
CSLAYER1
  6
CONTINUOUS
 62
     7
 10
88.008145
 20
128.182916
 30
0.0
  0
VERTEX
  8
CSLAYER1
  6
CONTINUOUS
 62
     7
 10
87.939105
 20
128.057951
 30
0.0
  0
VERTEX
  8
CSLAYER1
  6
CONTINUOUS
 62
     7
 10
87.878170
 20
127.925105
 30
0.0
  0
VERTEX
  8
CSLAYER1
  6
CONTINUOUS
 62
     7
 10
87.825803
 20
127.785388
 30
0.0
  0
VERTEX
  8
CSLAYER1
  6
CONTINUOUS
 62
     7
 10
87.782403
 20
127.639863
 30
0.0
  0
VERTEX
  8
CSLAYER1
  6
CONTINUOUS
 62
     7
 10
87.748299
 20
127.489639
 30
0.0
  0
VERTEX
  8
CSLAYER1
  6
CONTINUOUS
 62
     7
 10
87.723753
 20
127.335858
 30
0.0
  0
VERTEX
  8
CSLAYER1
  6
CONTINUOUS
 62
     7
 10
87.708950
 20
127.179692
 30
0.0
  0
VERTEX
  8
CSLAYER1
  6
CONTINUOUS
 62
     7
 10
87.704003
 20
127.022327
 30
0.0
  0
VERTEX
  8
CSLAYER1
  6
CONTINUOUS
 62
     7
 10
87.708950
 20
126.864962
 30
0.0
  0
VERTEX
  8
CSLAYER1
  6
CONTINUOUS
 62
     7
 10
87.723753
 20
126.708796
 30
0.0
  0
VERTEX
  8
CSLAYER1
  6
CONTINUOUS
 62
     7
 10
87.748299
 20
126.555015
 30
0.0
  0
VERTEX
  8
CSLAYER1
  6
CONTINUOUS
 62
     7
 10
87.782403
 20
126.404791
 30
0.0
  0
VERTEX
  8
CSLAYER1
  6
CONTINUOUS
 62
     7
 10
87.825803
 20
126.259266
 30
0.0
  0
VERTEX
  8
CSLAYER1
  6
CONTINUOUS
 62
     7
 10
87.878170
 20
126.119549
 30
0.0
  0
VERTEX
  8
CSLAYER1
  6
CONTINUOUS
 62
     7
 10
87.939105
 20
125.986703
 30
0.0
  0
VERTEX
  8
CSLAYER1
  6
CONTINUOUS
 62
     7
 10
88.008145
 20
125.861738
 30
0.0
  0
VERTEX
  8
CSLAYER1
  6
CONTINUOUS
 62
     7
 10
88.084764
 20
125.745606
 30
0.0
  0
VERTEX
  8
CSLAYER1
  6
CONTINUOUS
 62
     7
 10
88.168379
 20
125.639191
 30
0.0
  0
VERTEX
  8
CSLAYER1
  6
CONTINUOUS
 62
     7
 10
88.258354
 20
125.543302
 30
0.0
  0
VERTEX
  8
CSLAYER1
  6
CONTINUOUS
 62
     7
 10
88.354003
 20
125.458670
 30
0.0
  0
VERTEX
  8
CSLAYER1
  6
CONTINUOUS
 62
     7
 10
88.454599
 20
125.385938
 30
0.0
  0
VERTEX
  8
CSLAYER1
  6
CONTINUOUS
 62
     7
 10
88.559377
 20
125.325660
 30
0.0
  0
VERTEX
  8
CSLAYER1
  6
CONTINUOUS
 62
     7
 10
88.667538
 20
125.278294
 30
0.0
  0
VERTEX
  8
CSLAYER1
  6
CONTINUOUS
 62
     7
 10
88.778260
 20
125.244202
 30
0.0
  0
VERTEX
  8
CSLAYER1
  6
CONTINUOUS
 62
     7
 10
88.890700
 20
125.223642
 30
0.0
  0
VERTEX
  8
CSLAYER1
  6
CONTINUOUS
 62
     7
 10
89.004003
 20
125.216771
 30
0.0
  0
SEQEND
  0
ARC
  8
CSLAYER1
  6
CONTINUOUS
 62
     3
 10
87.992892
 20
122.022327
 40
1.805556
 50
-70.999198
 51
70.999198
  0
LINE
  8
CSLAYER1
  6
CONTINUOUS
 62
     3
 10
88.027337
 20
120.830692
 11
89.381565
 21
123.176284
  0
POLYLINE
  8
CSLAYER1
  6
CONTINUOUS
 62
     7
 66
     1
 10
0.0
 20
0.0
 30
0.0
  0
VERTEX
  8
CSLAYER1
  6
CONTINUOUS
 62
     7
 10
89.004003
 20
120.216771
 30
0.0
  0
VERTEX
  8
CSLAYER1
  6
CONTINUOUS
 62
     7
 10
89.117305
 20
120.223642
 30
0.0
  0
VERTEX
  8
CSLAYER1
  6
CONTINUOUS
 62
     7
 10
89.229746
 20
120.244202
 30
0.0
  0
VERTEX
  8
CSLAYER1
  6
CONTINUOUS
 62
     7
 10
89.340468
 20
120.278294
 30
0.0
  0
VERTEX
  8
CSLAYER1
  6
CONTINUOUS
 62
     7
 10
89.448629
 20
120.325660
 30
0.0
  0
VERTEX
  8
CSLAYER1
  6
CONTINUOUS
 62
     7
 10
89.553407
 20
120.385938
 30
0.0
  0
VERTEX
  8
CSLAYER1
  6
CONTINUOUS
 62
     7
 10
89.654003
 20
120.458670
 30
0.0
  0
VERTEX
  8
CSLAYER1
  6
CONTINUOUS
 62
     7
 10
89.749652
 20
120.543302
 30
0.0
  0
VERTEX
  8
CSLAYER1
  6
CONTINUOUS
 62
     7
 10
89.839627
 20
120.639191
 30
0.0
  0
VERTEX
  8
CSLAYER1
  6
CONTINUOUS
 62
     7
 10
89.923242
 20
120.745606
 30
0.0
  0
VERTEX
  8
CSLAYER1
  6
CONTINUOUS
 62
     7
 10
89.999861
 20
120.861738
 30
0.0
  0
VERTEX
  8
CSLAYER1
  6
CONTINUOUS
 62
     7
 10
90.068901
 20
120.986703
 30
0.0
  0
VERTEX
  8
CSLAYER1
  6
CONTINUOUS
 62
     7
 10
90.129836
 20
121.119549
 30
0.0
  0
VERTEX
  8
CSLAYER1
  6
CONTINUOUS
 62
     7
 10
90.182203
 20
121.259266
 30
0.0
  0
VERTEX
  8
CSLAYER1
  6
CONTINUOUS
 62
     7
 10
90.225603
 20
121.404791
 30
0.0
  0
VERTEX
  8
CSLAYER1
  6
CONTINUOUS
 62
     7
 10
90.259706
 20
121.555015
 30
0.0
  0
VERTEX
  8
CSLAYER1
  6
CONTINUOUS
 62
     7
 10
90.284253
 20
121.708796
 30
0.0
  0
VERTEX
  8
CSLAYER1
  6
CONTINUOUS
 62
     7
 10
90.299056
 20
121.864962
 30
0.0
  0
VERTEX
  8
CSLAYER1
  6
CONTINUOUS
 62
     7
 10
90.304003
 20
122.022327
 30
0.0
  0
VERTEX
  8
CSLAYER1
  6
CONTINUOUS
 62
     7
 10
90.299056
 20
122.179692
 30
0.0
  0
VERTEX
  8
CSLAYER1
  6
CONTINUOUS
 62
     7
 10
90.284253
 20
122.335858
 30
0.0
  0
VERTEX
  8
CSLAYER1
  6
CONTINUOUS
 62
     7
 10
90.259706
 20
122.489639
 30
0.0
  0
VERTEX
  8
CSLAYER1
  6
CONTINUOUS
 62
     7
 10
90.225603
 20
122.639863
 30
0.0
  0
VERTEX
  8
CSLAYER1
  6
CONTINUOUS
 62
     7
 10
90.182203
 20
122.785388
 30
0.0
  0
VERTEX
  8
CSLAYER1
  6
CONTINUOUS
 62
     7
 10
90.129836
 20
122.925105
 30
0.0
  0
VERTEX
  8
CSLAYER1
  6
CONTINUOUS
 62
     7
 10
90.068901
 20
123.057951
 30
0.0
  0
VERTEX
  8
CSLAYER1
  6
CONTINUOUS
 62
     7
 10
89.999861
 20
123.182916
 30
0.0
  0
VERTEX
  8
CSLAYER1
  6
CONTINUOUS
 62
     7
 10
89.923242
 20
123.299048
 30
0.0
  0
VERTEX
  8
CSLAYER1
  6
CONTINUOUS
 62
     7
 10
89.839627
 20
123.405463
 30
0.0
  0
VERTEX
  8
CSLAYER1
  6
CONTINUOUS
 62
     7
 10
89.749652
 20
123.501352
 30
0.0
  0
VERTEX
  8
CSLAYER1
  6
CONTINUOUS
 62
     7
 10
89.654003
 20
123.585984
 30
0.0
  0
VERTEX
  8
CSLAYER1
  6
CONTINUOUS
 62
     7
 10
89.553407
 20
123.658716
 30
0.0
  0
VERTEX
  8
CSLAYER1
  6
CONTINUOUS
 62
     7
 10
89.448629
 20
123.718994
 30
0.0
  0
VERTEX
  8
CSLAYER1
  6
CONTINUOUS
 62
     7
 10
89.340468
 20
123.766360
 30
0.0
  0
VERTEX
  8
CSLAYER1
  6
CONTINUOUS
 62
     7
 10
89.229746
 20
123.800452
 30
0.0
  0
VERTEX
  8
CSLAYER1
  6
CONTINUOUS
 62
     7
 10
89.117305
 20
123.821012
 30
0.0
  0
VERTEX
  8
CSLAYER1
  6
CONTINUOUS
 62
     7
 10
89.004003
 20
123.827883
 30
0.0
  0
VERTEX
  8
CSLAYER1
  6
CONTINUOUS
 62
     7
 10
88.890700
 20
123.821012
 30
0.0
  0
VERTEX
  8
CSLAYER1
  6
CONTINUOUS
 62
     7
 10
88.778260
 20
123.800452
 30
0.0
  0
VERTEX
  8
CSLAYER1
  6
CONTINUOUS
 62
     7
 10
88.667538
 20
123.766360
 30
0.0
  0
VERTEX
  8
CSLAYER1
  6
CONTINUOUS
 62
     7
 10
88.559377
 20
123.718994
 30
0.0
  0
VERTEX
  8
CSLAYER1
  6
CONTINUOUS
 62
     7
 10
88.454599
 20
123.658716
 30
0.0
  0
VERTEX
  8
CSLAYER1
  6
CONTINUOUS
 62
     7
 10
88.354003
 20
123.585984
 30
0.0
  0
VERTEX
  8
CSLAYER1
  6
CONTINUOUS
 62
     7
 10
88.258354
 20
123.501352
 30
0.0
  0
VERTEX
  8
CSLAYER1
  6
CONTINUOUS
 62
     7
 10
88.168379
 20
123.405463
 30
0.0
  0
VERTEX
  8
CSLAYER1
  6
CONTINUOUS
 62
     7
 10
88.084764
 20
123.299048
 30
0.0
  0
VERTEX
  8
CSLAYER1
  6
CONTINUOUS
 62
     7
 10
88.008145
 20
123.182916
 30
0.0
  0
VERTEX
  8
CSLAYER1
  6
CONTINUOUS
 62
     7
 10
87.939105
 20
123.057951
 30
0.0
  0
VERTEX
  8
CSLAYER1
  6
CONTINUOUS
 62
     7
 10
87.878170
 20
122.925105
 30
0.0
  0
VERTEX
  8
CSLAYER1
  6
CONTINUOUS
 62
     7
 10
87.825803
 20
122.785388
 30
0.0
  0
VERTEX
  8
CSLAYER1
  6
CONTINUOUS
 62
     7
 10
87.782403
 20
122.639863
 30
0.0
  0
VERTEX
  8
CSLAYER1
  6
CONTINUOUS
 62
     7
 10
87.748299
 20
122.489639
 30
0.0
  0
VERTEX
  8
CSLAYER1
  6
CONTINUOUS
 62
     7
 10
87.723753
 20
122.335858
 30
0.0
  0
VERTEX
  8
CSLAYER1
  6
CONTINUOUS
 62
     7
 10
87.708950
 20
122.179692
 30
0.0
  0
VERTEX
  8
CSLAYER1
  6
CONTINUOUS
 62
     7
 10
87.704003
 20
122.022327
 30
0.0
  0
VERTEX
  8
CSLAYER1
  6
CONTINUOUS
 62
     7
 10
87.708950
 20
121.864962
 30
0.0
  0
VERTEX
  8
CSLAYER1
  6
CONTINUOUS
 62
     7
 10
87.723753
 20
121.708796
 30
0.0
  0
VERTEX
  8
CSLAYER1
  6
CONTINUOUS
 62
     7
 10
87.748299
 20
121.555015
 30
0.0
  0
VERTEX
  8
CSLAYER1
  6
CONTINUOUS
 62
     7
 10
87.782403
 20
121.404791
 30
0.0
  0
VERTEX
  8
CSLAYER1
  6
CONTINUOUS
 62
     7
 10
87.825803
 20
121.259266
 30
0.0
  0
VERTEX
  8
CSLAYER1
  6
CONTINUOUS
 62
     7
 10
87.878170
 20
121.119549
 30
0.0
  0
VERTEX
  8
CSLAYER1
  6
CONTINUOUS
 62
     7
 10
87.939105
 20
120.986703
 30
0.0
  0
VERTEX
  8
CSLAYER1
  6
CONTINUOUS
 62
     7
 10
88.008145
 20
120.861738
 30
0.0
  0
VERTEX
  8
CSLAYER1
  6
CONTINUOUS
 62
     7
 10
88.084764
 20
120.745606
 30
0.0
  0
VERTEX
  8
CSLAYER1
  6
CONTINUOUS
 62
     7
 10
88.168379
 20
120.639191
 30
0.0
  0
VERTEX
  8
CSLAYER1
  6
CONTINUOUS
 62
     7
 10
88.258354
 20
120.543302
 30
0.0
  0
VERTEX
  8
CSLAYER1
  6
CONTINUOUS
 62
     7
 10
88.354003
 20
120.458670
 30
0.0
  0
VERTEX
  8
CSLAYER1
  6
CONTINUOUS
 62
     7
 10
88.454599
 20
120.385938
 30
0.0
  0
VERTEX
  8
CSLAYER1
  6
CONTINUOUS
 62
     7
 10
88.559377
 20
120.325660
 30
0.0
  0
VERTEX
  8
CSLAYER1
  6
CONTINUOUS
 62
     7
 10
88.667538
 20
120.278294
 30
0.0
  0
VERTEX
  8
CSLAYER1
  6
CONTINUOUS
 62
     7
 10
88.778260
 20
120.244202
 30
0.0
  0
VERTEX
  8
CSLAYER1
  6
CONTINUOUS
 62
     7
 10
88.890700
 20
120.223642
 30
0.0
  0
VERTEX
  8
CSLAYER1
  6
CONTINUOUS
 62
     7
 10
89.004003
 20
120.216771
 30
0.0
  0
SEQEND
  0
ARC
  8
CSLAYER1
  6
CONTINUOUS
 62
     3
 10
87.992892
 20
117.022327
 40
1.805556
 50
-70.999198
 51
70.999198
  0
LINE
  8
CSLAYER1
  6
CONTINUOUS
 62
     3
 10
88.027337
 20
115.830692
 11
89.381565
 21
118.176284
  0
POLYLINE
  8
CSLAYER1
  6
CONTINUOUS
 62
     7
 66
     1
 10
0.0
 20
0.0
 30
0.0
  0
VERTEX
  8
CSLAYER1
  6
CONTINUOUS
 62
     7
 10
89.004003
 20
115.216771
 30
0.0
  0
VERTEX
  8
CSLAYER1
  6
CONTINUOUS
 62
     7
 10
89.117305
 20
115.223642
 30
0.0
  0
VERTEX
  8
CSLAYER1
  6
CONTINUOUS
 62
     7
 10
89.229746
 20
115.244202
 30
0.0
  0
VERTEX
  8
CSLAYER1
  6
CONTINUOUS
 62
     7
 10
89.340468
 20
115.278294
 30
0.0
  0
VERTEX
  8
CSLAYER1
  6
CONTINUOUS
 62
     7
 10
89.448629
 20
115.325660
 30
0.0
  0
VERTEX
  8
CSLAYER1
  6
CONTINUOUS
 62
     7
 10
89.553407
 20
115.385938
 30
0.0
  0
VERTEX
  8
CSLAYER1
  6
CONTINUOUS
 62
     7
 10
89.654003
 20
115.458670
 30
0.0
  0
VERTEX
  8
CSLAYER1
  6
CONTINUOUS
 62
     7
 10
89.749652
 20
115.543302
 30
0.0
  0
VERTEX
  8
CSLAYER1
  6
CONTINUOUS
 62
     7
 10
89.839627
 20
115.639191
 30
0.0
  0
VERTEX
  8
CSLAYER1
  6
CONTINUOUS
 62
     7
 10
89.923242
 20
115.745606
 30
0.0
  0
VERTEX
  8
CSLAYER1
  6
CONTINUOUS
 62
     7
 10
89.999861
 20
115.861738
 30
0.0
  0
VERTEX
  8
CSLAYER1
  6
CONTINUOUS
 62
     7
 10
90.068901
 20
115.986703
 30
0.0
  0
VERTEX
  8
CSLAYER1
  6
CONTINUOUS
 62
     7
 10
90.129836
 20
116.119549
 30
0.0
  0
VERTEX
  8
CSLAYER1
  6
CONTINUOUS
 62
     7
 10
90.182203
 20
116.259266
 30
0.0
  0
VERTEX
  8
CSLAYER1
  6
CONTINUOUS
 62
     7
 10
90.225603
 20
116.404791
 30
0.0
  0
VERTEX
  8
CSLAYER1
  6
CONTINUOUS
 62
     7
 10
90.259706
 20
116.555015
 30
0.0
  0
VERTEX
  8
CSLAYER1
  6
CONTINUOUS
 62
     7
 10
90.284253
 20
116.708796
 30
0.0
  0
VERTEX
  8
CSLAYER1
  6
CONTINUOUS
 62
     7
 10
90.299056
 20
116.864962
 30
0.0
  0
VERTEX
  8
CSLAYER1
  6
CONTINUOUS
 62
     7
 10
90.304003
 20
117.022327
 30
0.0
  0
VERTEX
  8
CSLAYER1
  6
CONTINUOUS
 62
     7
 10
90.299056
 20
117.179692
 30
0.0
  0
VERTEX
  8
CSLAYER1
  6
CONTINUOUS
 62
     7
 10
90.284253
 20
117.335858
 30
0.0
  0
VERTEX
  8
CSLAYER1
  6
CONTINUOUS
 62
     7
 10
90.259706
 20
117.489639
 30
0.0
  0
VERTEX
  8
CSLAYER1
  6
CONTINUOUS
 62
     7
 10
90.225603
 20
117.639863
 30
0.0
  0
VERTEX
  8
CSLAYER1
  6
CONTINUOUS
 62
     7
 10
90.182203
 20
117.785388
 30
0.0
  0
VERTEX
  8
CSLAYER1
  6
CONTINUOUS
 62
     7
 10
90.129836
 20
117.925105
 30
0.0
  0
VERTEX
  8
CSLAYER1
  6
CONTINUOUS
 62
     7
 10
90.068901
 20
118.057951
 30
0.0
  0
VERTEX
  8
CSLAYER1
  6
CONTINUOUS
 62
     7
 10
89.999861
 20
118.182916
 30
0.0
  0
VERTEX
  8
CSLAYER1
  6
CONTINUOUS
 62
     7
 10
89.923242
 20
118.299048
 30
0.0
  0
VERTEX
  8
CSLAYER1
  6
CONTINUOUS
 62
     7
 10
89.839627
 20
118.405463
 30
0.0
  0
VERTEX
  8
CSLAYER1
  6
CONTINUOUS
 62
     7
 10
89.749652
 20
118.501352
 30
0.0
  0
VERTEX
  8
CSLAYER1
  6
CONTINUOUS
 62
     7
 10
89.654003
 20
118.585984
 30
0.0
  0
VERTEX
  8
CSLAYER1
  6
CONTINUOUS
 62
     7
 10
89.553407
 20
118.658716
 30
0.0
  0
VERTEX
  8
CSLAYER1
  6
CONTINUOUS
 62
     7
 10
89.448629
 20
118.718994
 30
0.0
  0
VERTEX
  8
CSLAYER1
  6
CONTINUOUS
 62
     7
 10
89.340468
 20
118.766360
 30
0.0
  0
VERTEX
  8
CSLAYER1
  6
CONTINUOUS
 62
     7
 10
89.229746
 20
118.800452
 30
0.0
  0
VERTEX
  8
CSLAYER1
  6
CONTINUOUS
 62
     7
 10
89.117305
 20
118.821012
 30
0.0
  0
VERTEX
  8
CSLAYER1
  6
CONTINUOUS
 62
     7
 10
89.004003
 20
118.827883
 30
0.0
  0
VERTEX
  8
CSLAYER1
  6
CONTINUOUS
 62
     7
 10
88.890700
 20
118.821012
 30
0.0
  0
VERTEX
  8
CSLAYER1
  6
CONTINUOUS
 62
     7
 10
88.778260
 20
118.800452
 30
0.0
  0
VERTEX
  8
CSLAYER1
  6
CONTINUOUS
 62
     7
 10
88.667538
 20
118.766360
 30
0.0
  0
VERTEX
  8
CSLAYER1
  6
CONTINUOUS
 62
     7
 10
88.559377
 20
118.718994
 30
0.0
  0
VERTEX
  8
CSLAYER1
  6
CONTINUOUS
 62
     7
 10
88.454599
 20
118.658716
 30
0.0
  0
VERTEX
  8
CSLAYER1
  6
CONTINUOUS
 62
     7
 10
88.354003
 20
118.585984
 30
0.0
  0
VERTEX
  8
CSLAYER1
  6
CONTINUOUS
 62
     7
 10
88.258354
 20
118.501352
 30
0.0
  0
VERTEX
  8
CSLAYER1
  6
CONTINUOUS
 62
     7
 10
88.168379
 20
118.405463
 30
0.0
  0
VERTEX
  8
CSLAYER1
  6
CONTINUOUS
 62
     7
 10
88.084764
 20
118.299048
 30
0.0
  0
VERTEX
  8
CSLAYER1
  6
CONTINUOUS
 62
     7
 10
88.008145
 20
118.182916
 30
0.0
  0
VERTEX
  8
CSLAYER1
  6
CONTINUOUS
 62
     7
 10
87.939105
 20
118.057951
 30
0.0
  0
VERTEX
  8
CSLAYER1
  6
CONTINUOUS
 62
     7
 10
87.878170
 20
117.925105
 30
0.0
  0
VERTEX
  8
CSLAYER1
  6
CONTINUOUS
 62
     7
 10
87.825803
 20
117.785388
 30
0.0
  0
VERTEX
  8
CSLAYER1
  6
CONTINUOUS
 62
     7
 10
87.782403
 20
117.639863
 30
0.0
  0
VERTEX
  8
CSLAYER1
  6
CONTINUOUS
 62
     7
 10
87.748299
 20
117.489639
 30
0.0
  0
VERTEX
  8
CSLAYER1
  6
CONTINUOUS
 62
     7
 10
87.723753
 20
117.335858
 30
0.0
  0
VERTEX
  8
CSLAYER1
  6
CONTINUOUS
 62
     7
 10
87.708950
 20
117.179692
 30
0.0
  0
VERTEX
  8
CSLAYER1
  6
CONTINUOUS
 62
     7
 10
87.704003
 20
117.022327
 30
0.0
  0
VERTEX
  8
CSLAYER1
  6
CONTINUOUS
 62
     7
 10
87.708950
 20
116.864962
 30
0.0
  0
VERTEX
  8
CSLAYER1
  6
CONTINUOUS
 62
     7
 10
87.723753
 20
116.708796
 30
0.0
  0
VERTEX
  8
CSLAYER1
  6
CONTINUOUS
 62
     7
 10
87.748299
 20
116.555015
 30
0.0
  0
VERTEX
  8
CSLAYER1
  6
CONTINUOUS
 62
     7
 10
87.782403
 20
116.404791
 30
0.0
  0
VERTEX
  8
CSLAYER1
  6
CONTINUOUS
 62
     7
 10
87.825803
 20
116.259266
 30
0.0
  0
VERTEX
  8
CSLAYER1
  6
CONTINUOUS
 62
     7
 10
87.878170
 20
116.119549
 30
0.0
  0
VERTEX
  8
CSLAYER1
  6
CONTINUOUS
 62
     7
 10
87.939105
 20
115.986703
 30
0.0
  0
VERTEX
  8
CSLAYER1
  6
CONTINUOUS
 62
     7
 10
88.008145
 20
115.861738
 30
0.0
  0
VERTEX
  8
CSLAYER1
  6
CONTINUOUS
 62
     7
 10
88.084764
 20
115.745606
 30
0.0
  0
VERTEX
  8
CSLAYER1
  6
CONTINUOUS
 62
     7
 10
88.168379
 20
115.639191
 30
0.0
  0
VERTEX
  8
CSLAYER1
  6
CONTINUOUS
 62
     7
 10
88.258354
 20
115.543302
 30
0.0
  0
VERTEX
  8
CSLAYER1
  6
CONTINUOUS
 62
     7
 10
88.354003
 20
115.458670
 30
0.0
  0
VERTEX
  8
CSLAYER1
  6
CONTINUOUS
 62
     7
 10
88.454599
 20
115.385938
 30
0.0
  0
VERTEX
  8
CSLAYER1
  6
CONTINUOUS
 62
     7
 10
88.559377
 20
115.325660
 30
0.0
  0
VERTEX
  8
CSLAYER1
  6
CONTINUOUS
 62
     7
 10
88.667538
 20
115.278294
 30
0.0
  0
VERTEX
  8
CSLAYER1
  6
CONTINUOUS
 62
     7
 10
88.778260
 20
115.244202
 30
0.0
  0
VERTEX
  8
CSLAYER1
  6
CONTINUOUS
 62
     7
 10
88.890700
 20
115.223642
 30
0.0
  0
VERTEX
  8
CSLAYER1
  6
CONTINUOUS
 62
     7
 10
89.004003
 20
115.216771
 30
0.0
  0
SEQEND
  0
ARC
  8
CSLAYER1
  6
CONTINUOUS
 62
     3
 10
87.992892
 20
112.022327
 40
1.805556
 50
-70.999198
 51
70.999198
  0
LINE
  8
CSLAYER1
  6
CONTINUOUS
 62
     3
 10
88.027337
 20
110.830692
 11
89.381565
 21
113.176284
  0
POLYLINE
  8
CSLAYER1
  6
CONTINUOUS
 62
     7
 66
     1
 10
0.0
 20
0.0
 30
0.0
  0
VERTEX
  8
CSLAYER1
  6
CONTINUOUS
 62
     7
 10
89.004003
 20
110.216771
 30
0.0
  0
VERTEX
  8
CSLAYER1
  6
CONTINUOUS
 62
     7
 10
89.117305
 20
110.223642
 30
0.0
  0
VERTEX
  8
CSLAYER1
  6
CONTINUOUS
 62
     7
 10
89.229746
 20
110.244202
 30
0.0
  0
VERTEX
  8
CSLAYER1
  6
CONTINUOUS
 62
     7
 10
89.340468
 20
110.278294
 30
0.0
  0
VERTEX
  8
CSLAYER1
  6
CONTINUOUS
 62
     7
 10
89.448629
 20
110.325660
 30
0.0
  0
VERTEX
  8
CSLAYER1
  6
CONTINUOUS
 62
     7
 10
89.553407
 20
110.385938
 30
0.0
  0
VERTEX
  8
CSLAYER1
  6
CONTINUOUS
 62
     7
 10
89.654003
 20
110.458670
 30
0.0
  0
VERTEX
  8
CSLAYER1
  6
CONTINUOUS
 62
     7
 10
89.749652
 20
110.543302
 30
0.0
  0
VERTEX
  8
CSLAYER1
  6
CONTINUOUS
 62
     7
 10
89.839627
 20
110.639191
 30
0.0
  0
VERTEX
  8
CSLAYER1
  6
CONTINUOUS
 62
     7
 10
89.923242
 20
110.745606
 30
0.0
  0
VERTEX
  8
CSLAYER1
  6
CONTINUOUS
 62
     7
 10
89.999861
 20
110.861738
 30
0.0
  0
VERTEX
  8
CSLAYER1
  6
CONTINUOUS
 62
     7
 10
90.068901
 20
110.986703
 30
0.0
  0
VERTEX
  8
CSLAYER1
  6
CONTINUOUS
 62
     7
 10
90.129836
 20
111.119549
 30
0.0
  0
VERTEX
  8
CSLAYER1
  6
CONTINUOUS
 62
     7
 10
90.182203
 20
111.259266
 30
0.0
  0
VERTEX
  8
CSLAYER1
  6
CONTINUOUS
 62
     7
 10
90.225603
 20
111.404791
 30
0.0
  0
VERTEX
  8
CSLAYER1
  6
CONTINUOUS
 62
     7
 10
90.259706
 20
111.555015
 30
0.0
  0
VERTEX
  8
CSLAYER1
  6
CONTINUOUS
 62
     7
 10
90.284253
 20
111.708796
 30
0.0
  0
VERTEX
  8
CSLAYER1
  6
CONTINUOUS
 62
     7
 10
90.299056
 20
111.864962
 30
0.0
  0
VERTEX
  8
CSLAYER1
  6
CONTINUOUS
 62
     7
 10
90.304003
 20
112.022327
 30
0.0
  0
VERTEX
  8
CSLAYER1
  6
CONTINUOUS
 62
     7
 10
90.299056
 20
112.179692
 30
0.0
  0
VERTEX
  8
CSLAYER1
  6
CONTINUOUS
 62
     7
 10
90.284253
 20
112.335858
 30
0.0
  0
VERTEX
  8
CSLAYER1
  6
CONTINUOUS
 62
     7
 10
90.259706
 20
112.489639
 30
0.0
  0
VERTEX
  8
CSLAYER1
  6
CONTINUOUS
 62
     7
 10
90.225603
 20
112.639863
 30
0.0
  0
VERTEX
  8
CSLAYER1
  6
CONTINUOUS
 62
     7
 10
90.182203
 20
112.785388
 30
0.0
  0
VERTEX
  8
CSLAYER1
  6
CONTINUOUS
 62
     7
 10
90.129836
 20
112.925105
 30
0.0
  0
VERTEX
  8
CSLAYER1
  6
CONTINUOUS
 62
     7
 10
90.068901
 20
113.057951
 30
0.0
  0
VERTEX
  8
CSLAYER1
  6
CONTINUOUS
 62
     7
 10
89.999861
 20
113.182916
 30
0.0
  0
VERTEX
  8
CSLAYER1
  6
CONTINUOUS
 62
     7
 10
89.923242
 20
113.299048
 30
0.0
  0
VERTEX
  8
CSLAYER1
  6
CONTINUOUS
 62
     7
 10
89.839627
 20
113.405463
 30
0.0
  0
VERTEX
  8
CSLAYER1
  6
CONTINUOUS
 62
     7
 10
89.749652
 20
113.501352
 30
0.0
  0
VERTEX
  8
CSLAYER1
  6
CONTINUOUS
 62
     7
 10
89.654003
 20
113.585984
 30
0.0
  0
VERTEX
  8
CSLAYER1
  6
CONTINUOUS
 62
     7
 10
89.553407
 20
113.658716
 30
0.0
  0
VERTEX
  8
CSLAYER1
  6
CONTINUOUS
 62
     7
 10
89.448629
 20
113.718994
 30
0.0
  0
VERTEX
  8
CSLAYER1
  6
CONTINUOUS
 62
     7
 10
89.340468
 20
113.766360
 30
0.0
  0
VERTEX
  8
CSLAYER1
  6
CONTINUOUS
 62
     7
 10
89.229746
 20
113.800452
 30
0.0
  0
VERTEX
  8
CSLAYER1
  6
CONTINUOUS
 62
     7
 10
89.117305
 20
113.821012
 30
0.0
  0
VERTEX
  8
CSLAYER1
  6
CONTINUOUS
 62
     7
 10
89.004003
 20
113.827883
 30
0.0
  0
VERTEX
  8
CSLAYER1
  6
CONTINUOUS
 62
     7
 10
88.890700
 20
113.821012
 30
0.0
  0
VERTEX
  8
CSLAYER1
  6
CONTINUOUS
 62
     7
 10
88.778260
 20
113.800452
 30
0.0
  0
VERTEX
  8
CSLAYER1
  6
CONTINUOUS
 62
     7
 10
88.667538
 20
113.766360
 30
0.0
  0
VERTEX
  8
CSLAYER1
  6
CONTINUOUS
 62
     7
 10
88.559377
 20
113.718994
 30
0.0
  0
VERTEX
  8
CSLAYER1
  6
CONTINUOUS
 62
     7
 10
88.454599
 20
113.658716
 30
0.0
  0
VERTEX
  8
CSLAYER1
  6
CONTINUOUS
 62
     7
 10
88.354003
 20
113.585984
 30
0.0
  0
VERTEX
  8
CSLAYER1
  6
CONTINUOUS
 62
     7
 10
88.258354
 20
113.501352
 30
0.0
  0
VERTEX
  8
CSLAYER1
  6
CONTINUOUS
 62
     7
 10
88.168379
 20
113.405463
 30
0.0
  0
VERTEX
  8
CSLAYER1
  6
CONTINUOUS
 62
     7
 10
88.084764
 20
113.299048
 30
0.0
  0
VERTEX
  8
CSLAYER1
  6
CONTINUOUS
 62
     7
 10
88.008145
 20
113.182916
 30
0.0
  0
VERTEX
  8
CSLAYER1
  6
CONTINUOUS
 62
     7
 10
87.939105
 20
113.057951
 30
0.0
  0
VERTEX
  8
CSLAYER1
  6
CONTINUOUS
 62
     7
 10
87.878170
 20
112.925105
 30
0.0
  0
VERTEX
  8
CSLAYER1
  6
CONTINUOUS
 62
     7
 10
87.825803
 20
112.785388
 30
0.0
  0
VERTEX
  8
CSLAYER1
  6
CONTINUOUS
 62
     7
 10
87.782403
 20
112.639863
 30
0.0
  0
VERTEX
  8
CSLAYER1
  6
CONTINUOUS
 62
     7
 10
87.748299
 20
112.489639
 30
0.0
  0
VERTEX
  8
CSLAYER1
  6
CONTINUOUS
 62
     7
 10
87.723753
 20
112.335858
 30
0.0
  0
VERTEX
  8
CSLAYER1
  6
CONTINUOUS
 62
     7
 10
87.708950
 20
112.179692
 30
0.0
  0
VERTEX
  8
CSLAYER1
  6
CONTINUOUS
 62
     7
 10
87.704003
 20
112.022327
 30
0.0
  0
VERTEX
  8
CSLAYER1
  6
CONTINUOUS
 62
     7
 10
87.708950
 20
111.864962
 30
0.0
  0
VERTEX
  8
CSLAYER1
  6
CONTINUOUS
 62
     7
 10
87.723753
 20
111.708796
 30
0.0
  0
VERTEX
  8
CSLAYER1
  6
CONTINUOUS
 62
     7
 10
87.748299
 20
111.555015
 30
0.0
  0
VERTEX
  8
CSLAYER1
  6
CONTINUOUS
 62
     7
 10
87.782403
 20
111.404791
 30
0.0
  0
VERTEX
  8
CSLAYER1
  6
CONTINUOUS
 62
     7
 10
87.825803
 20
111.259266
 30
0.0
  0
VERTEX
  8
CSLAYER1
  6
CONTINUOUS
 62
     7
 10
87.878170
 20
111.119549
 30
0.0
  0
VERTEX
  8
CSLAYER1
  6
CONTINUOUS
 62
     7
 10
87.939105
 20
110.986703
 30
0.0
  0
VERTEX
  8
CSLAYER1
  6
CONTINUOUS
 62
     7
 10
88.008145
 20
110.861738
 30
0.0
  0
VERTEX
  8
CSLAYER1
  6
CONTINUOUS
 62
     7
 10
88.084764
 20
110.745606
 30
0.0
  0
VERTEX
  8
CSLAYER1
  6
CONTINUOUS
 62
     7
 10
88.168379
 20
110.639191
 30
0.0
  0
VERTEX
  8
CSLAYER1
  6
CONTINUOUS
 62
     7
 10
88.258354
 20
110.543302
 30
0.0
  0
VERTEX
  8
CSLAYER1
  6
CONTINUOUS
 62
     7
 10
88.354003
 20
110.458670
 30
0.0
  0
VERTEX
  8
CSLAYER1
  6
CONTINUOUS
 62
     7
 10
88.454599
 20
110.385938
 30
0.0
  0
VERTEX
  8
CSLAYER1
  6
CONTINUOUS
 62
     7
 10
88.559377
 20
110.325660
 30
0.0
  0
VERTEX
  8
CSLAYER1
  6
CONTINUOUS
 62
     7
 10
88.667538
 20
110.278294
 30
0.0
  0
VERTEX
  8
CSLAYER1
  6
CONTINUOUS
 62
     7
 10
88.778260
 20
110.244202
 30
0.0
  0
VERTEX
  8
CSLAYER1
  6
CONTINUOUS
 62
     7
 10
88.890700
 20
110.223642
 30
0.0
  0
VERTEX
  8
CSLAYER1
  6
CONTINUOUS
 62
     7
 10
89.004003
 20
110.216771
 30
0.0
  0
SEQEND
  0
LINE
  8
CSLAYER1
  6
CONTINUOUS
 62
     7
 10
76.388889
 20
155.448253
 11
76.388889
 21
158.596401
  0
LINE
  8
CSLAYER1
  6
CONTINUOUS
 62
     7
 10
79.629630
 20
155.448253
 11
76.388889
 21
155.448253
  0
LINE
  8
CSLAYER1
  6
CONTINUOUS
 62
     7
 10
79.629630
 20
158.596401
 11
76.388889
 21
158.596401
  0
LINE
  8
CSLAYER1
  6
CONTINUOUS
 62
     7
 10
79.629630
 20
155.448253
 11
79.629630
 21
158.596401
  0
LINE
  8
CSLAYER1
  6
CONTINUOUS
 62
     7
 10
78.333333
 20
158.596401
 11
78.333333
 21
155.448253
  0
LINE
  8
CSLAYER1
  6
CONTINUOUS
 62
     7
 10
76.388889
 20
150.448253
 11
76.388889
 21
153.596401
  0
LINE
  8
CSLAYER1
  6
CONTINUOUS
 62
     7
 10
79.629630
 20
150.448253
 11
76.388889
 21
150.448253
  0
LINE
  8
CSLAYER1
  6
CONTINUOUS
 62
     7
 10
79.629630
 20
153.596401
 11
76.388889
 21
153.596401
  0
LINE
  8
CSLAYER1
  6
CONTINUOUS
 62
     7
 10
79.629630
 20
150.448253
 11
79.629630
 21
153.596401
  0
LINE
  8
CSLAYER1
  6
CONTINUOUS
 62
     7
 10
78.333333
 20
153.596401
 11
78.333333
 21
150.448253
  0
LINE
  8
CSLAYER1
  6
CONTINUOUS
 62
     7
 10
76.388889
 20
145.448253
 11
76.388889
 21
148.596401
  0
LINE
  8
CSLAYER1
  6
CONTINUOUS
 62
     7
 10
79.629630
 20
145.448253
 11
76.388889
 21
145.448253
  0
LINE
  8
CSLAYER1
  6
CONTINUOUS
 62
     7
 10
79.629630
 20
148.596401
 11
76.388889
 21
148.596401
  0
LINE
  8
CSLAYER1
  6
CONTINUOUS
 62
     7
 10
79.629630
 20
145.448253
 11
79.629630
 21
148.596401
  0
LINE
  8
CSLAYER1
  6
CONTINUOUS
 62
     7
 10
78.333333
 20
148.596401
 11
78.333333
 21
145.448253
  0
LINE
  8
CSLAYER1
  6
CONTINUOUS
 62
     7
 10
76.388889
 20
140.448253
 11
76.388889
 21
143.596401
  0
LINE
  8
CSLAYER1
  6
CONTINUOUS
 62
     7
 10
79.629630
 20
140.448253
 11
76.388889
 21
140.448253
  0
LINE
  8
CSLAYER1
  6
CONTINUOUS
 62
     7
 10
79.629630
 20
143.596401
 11
76.388889
 21
143.596401
  0
LINE
  8
CSLAYER1
  6
CONTINUOUS
 62
     7
 10
79.629630
 20
140.448253
 11
79.629630
 21
143.596401
  0
LINE
  8
CSLAYER1
  6
CONTINUOUS
 62
     7
 10
78.333333
 20
143.596401
 11
78.333333
 21
140.448253
  0
LINE
  8
CSLAYER1
  6
CONTINUOUS
 62
     7
 10
76.388889
 20
135.448253
 11
76.388889
 21
138.596401
  0
LINE
  8
CSLAYER1
  6
CONTINUOUS
 62
     7
 10
79.629630
 20
135.448253
 11
76.388889
 21
135.448253
  0
LINE
  8
CSLAYER1
  6
CONTINUOUS
 62
     7
 10
79.629630
 20
138.596401
 11
76.388889
 21
138.596401
  0
LINE
  8
CSLAYER1
  6
CONTINUOUS
 62
     7
 10
79.629630
 20
135.448253
 11
79.629630
 21
138.596401
  0
LINE
  8
CSLAYER1
  6
CONTINUOUS
 62
     7
 10
78.333333
 20
138.596401
 11
78.333333
 21
135.448253
  0
LINE
  8
CSLAYER1
  6
CONTINUOUS
 62
     7
 10
76.388889
 20
130.448253
 11
76.388889
 21
133.596401
  0
LINE
  8
CSLAYER1
  6
CONTINUOUS
 62
     7
 10
79.629630
 20
130.448253
 11
76.388889
 21
130.448253
  0
LINE
  8
CSLAYER1
  6
CONTINUOUS
 62
     7
 10
79.629630
 20
133.596401
 11
76.388889
 21
133.596401
  0
LINE
  8
CSLAYER1
  6
CONTINUOUS
 62
     7
 10
79.629630
 20
130.448253
 11
79.629630
 21
133.596401
  0
LINE
  8
CSLAYER1
  6
CONTINUOUS
 62
     7
 10
78.333333
 20
133.596401
 11
78.333333
 21
130.448253
  0
LINE
  8
CSLAYER1
  6
CONTINUOUS
 62
     7
 10
76.388889
 20
125.448253
 11
76.388889
 21
128.596401
  0
LINE
  8
CSLAYER1
  6
CONTINUOUS
 62
     7
 10
79.629630
 20
125.448253
 11
76.388889
 21
125.448253
  0
LINE
  8
CSLAYER1
  6
CONTINUOUS
 62
     7
 10
79.629630
 20
128.596401
 11
76.388889
 21
128.596401
  0
LINE
  8
CSLAYER1
  6
CONTINUOUS
 62
     7
 10
79.629630
 20
125.448253
 11
79.629630
 21
128.596401
  0
LINE
  8
CSLAYER1
  6
CONTINUOUS
 62
     7
 10
78.333333
 20
128.596401
 11
78.333333
 21
125.448253
  0
LINE
  8
CSLAYER1
  6
CONTINUOUS
 62
     7
 10
76.388889
 20
120.448253
 11
76.388889
 21
123.596401
  0
LINE
  8
CSLAYER1
  6
CONTINUOUS
 62
     7
 10
79.629630
 20
120.448253
 11
76.388889
 21
120.448253
  0
LINE
  8
CSLAYER1
  6
CONTINUOUS
 62
     7
 10
79.629630
 20
123.596401
 11
76.388889
 21
123.596401
  0
LINE
  8
CSLAYER1
  6
CONTINUOUS
 62
     7
 10
79.629630
 20
120.448253
 11
79.629630
 21
123.596401
  0
LINE
  8
CSLAYER1
  6
CONTINUOUS
 62
     7
 10
78.333333
 20
123.596401
 11
78.333333
 21
120.448253
  0
LINE
  8
CSLAYER1
  6
CONTINUOUS
 62
     7
 10
76.388889
 20
115.448253
 11
76.388889
 21
118.596401
  0
LINE
  8
CSLAYER1
  6
CONTINUOUS
 62
     7
 10
79.629630
 20
115.448253
 11
76.388889
 21
115.448253
  0
LINE
  8
CSLAYER1
  6
CONTINUOUS
 62
     7
 10
79.629630
 20
118.596401
 11
76.388889
 21
118.596401
  0
LINE
  8
CSLAYER1
  6
CONTINUOUS
 62
     7
 10
79.629630
 20
115.448253
 11
79.629630
 21
118.596401
  0
LINE
  8
CSLAYER1
  6
CONTINUOUS
 62
     7
 10
78.333333
 20
118.596401
 11
78.333333
 21
115.448253
  0
LINE
  8
CSLAYER1
  6
CONTINUOUS
 62
     7
 10
76.388889
 20
110.448253
 11
76.388889
 21
113.596401
  0
LINE
  8
CSLAYER1
  6
CONTINUOUS
 62
     7
 10
79.629630
 20
110.448253
 11
76.388889
 21
110.448253
  0
LINE
  8
CSLAYER1
  6
CONTINUOUS
 62
     7
 10
79.629630
 20
113.596401
 11
76.388889
 21
113.596401
  0
LINE
  8
CSLAYER1
  6
CONTINUOUS
 62
     7
 10
79.629630
 20
110.448253
 11
79.629630
 21
113.596401
  0
LINE
  8
CSLAYER1
  6
CONTINUOUS
 62
     7
 10
78.333333
 20
113.596401
 11
78.333333
 21
110.448253
  0
LINE
  8
CSLAYER1
  6
CONTINUOUS
 62
     6
 10
75.000000
 20
195.622327
 11
90.000000
 21
195.622327
  0
LINE
  8
CSLAYER1
  6
CONTINUOUS
 62
     6
 10
75.000000
 20
194.622327
 11
90.000000
 21
194.622327
  0
LINE
  8
CSLAYER1
  6
CONTINUOUS
 62
     6
 10
90.000000
 20
204.022327
 11
75.000000
 21
204.022327
  0
LINE
  8
CSLAYER1
  6
CONTINUOUS
 62
     6
 10
90.000000
 20
161.022327
 11
75.000000
 21
161.022327
  0
LINE
  8
CSLAYER1
  6
CONTINUOUS
 62
     6
 10
75.000000
 20
162.022327
 11
90.000000
 21
162.022327
  0
LINE
  8
CSLAYER1
  6
CONTINUOUS
 62
     6
 10
90.000000
 20
161.022327
 11
90.000000
 21
204.022327
  0
LINE
  8
CSLAYER1
  6
CONTINUOUS
 62
     6
 10
75.000000
 20
204.022327
 11
75.000000
 21
161.022327
  0
ARC
  8
CSLAYER1
  6
CONTINUOUS
 62
     6
 10
82.499990
 20
199.322328
 40
1.527778
 50
163.398416
 51
196.601577
  0
ARC
  8
CSLAYER1
  6
CONTINUOUS
 62
     6
 10
82.499990
 20
199.322328
 40
1.527778
 50
253.398422
 51
286.601583
  0
ARC
  8
CSLAYER1
  6
CONTINUOUS
 62
     6
 10
82.499990
 20
199.322328
 40
1.527778
 50
-16.601562
 51
16.601572
  0
ARC
  8
CSLAYER1
  6
CONTINUOUS
 62
     6
 10
82.499990
 20
199.322328
 40
1.527778
 50
73.398406
 51
106.601595
  0
LINE
  8
CSLAYER1
  6
CONTINUOUS
 62
     6
 10
83.373017
 20
198.885814
 11
83.964075
 21
198.885814
  0
LINE
  8
CSLAYER1
  6
CONTINUOUS
 62
     6
 10
81.626963
 20
198.885814
 11
81.035905
 21
198.885814
  0
LINE
  8
CSLAYER1
  6
CONTINUOUS
 62
     6
 10
83.373017
 20
199.758841
 11
83.964075
 21
199.758841
  0
LINE
  8
CSLAYER1
  6
CONTINUOUS
 62
     6
 10
81.626963
 20
199.758841
 11
81.035905
 21
199.758841
  0
LINE
  8
CSLAYER1
  6
CONTINUOUS
 62
     6
 10
82.063477
 20
198.449324
 11
82.063477
 21
197.858219
  0
LINE
  8
CSLAYER1
  6
CONTINUOUS
 62
     6
 10
82.063477
 20
200.195331
 11
82.063477
 21
200.786436
  0
LINE
  8
CSLAYER1
  6
CONTINUOUS
 62
     6
 10
82.936503
 20
198.449324
 11
82.936503
 21
197.858219
  0
LINE
  8
CSLAYER1
  6
CONTINUOUS
 62
     6
 10
82.936503
 20
200.195331
 11
82.936503
 21
200.786436
  0
ARC
  8
CSLAYER1
  6
CONTINUOUS
 62
     6
 10
83.373017
 20
198.449324
 40
0.436508
 50
90.000001
 51
179.942691
  0
ARC
  8
CSLAYER1
  6
CONTINUOUS
 62
     6
 10
83.373017
 20
200.195331
 40
0.436508
 50
180.000010
 51
270.000016
  0
ARC
  8
CSLAYER1
  6
CONTINUOUS
 62
     6
 10
81.626963
 20
200.195331
 40
0.436508
 50
-89.999984
 51
0.000005
  0
ARC
  8
CSLAYER1
  6
CONTINUOUS
 62
     6
 10
81.626963
 20
198.449324
 40
0.436508
 50
0.000005
 51
89.942654
  0
CIRCLE
  8
CSLAYER1
  6
CONTINUOUS
 62
     6
 10
82.500000
 20
199.322327
 40
2.750000
  0
LINE
  8
CSLAYER1
  6
CONTINUOUS
 62
     6
 10
75.000000
 20
203.022327
 11
90.000000
 21
203.022327
  0
ARC
  8
CSLAYER1
  6
CONTINUOUS
 62
     6
 10
82.499990
 20
182.522328
 40
1.527778
 50
163.398416
 51
196.601577
  0
ARC
  8
CSLAYER1
  6
CONTINUOUS
 62
     6
 10
82.499990
 20
182.522328
 40
1.527778
 50
253.398422
 51
286.601583
  0
ARC
  8
CSLAYER1
  6
CONTINUOUS
 62
     6
 10
82.499990
 20
182.522328
 40
1.527778
 50
-16.601562
 51
16.601572
  0
ARC
  8
CSLAYER1
  6
CONTINUOUS
 62
     6
 10
82.499990
 20
182.522328
 40
1.527778
 50
73.398406
 51
106.601595
  0
LINE
  8
CSLAYER1
  6
CONTINUOUS
 62
     6
 10
83.373017
 20
182.085814
 11
83.964075
 21
182.085814
  0
LINE
  8
CSLAYER1
  6
CONTINUOUS
 62
     6
 10
81.626963
 20
182.085814
 11
81.035905
 21
182.085814
  0
LINE
  8
CSLAYER1
  6
CONTINUOUS
 62
     6
 10
83.373017
 20
182.958841
 11
83.964075
 21
182.958841
  0
LINE
  8
CSLAYER1
  6
CONTINUOUS
 62
     6
 10
81.626963
 20
182.958841
 11
81.035905
 21
182.958841
  0
LINE
  8
CSLAYER1
  6
CONTINUOUS
 62
     6
 10
82.063477
 20
181.649324
 11
82.063477
 21
181.058219
  0
LINE
  8
CSLAYER1
  6
CONTINUOUS
 62
     6
 10
82.063477
 20
183.395331
 11
82.063477
 21
183.986436
  0
LINE
  8
CSLAYER1
  6
CONTINUOUS
 62
     6
 10
82.936503
 20
181.649324
 11
82.936503
 21
181.058219
  0
LINE
  8
CSLAYER1
  6
CONTINUOUS
 62
     6
 10
82.936503
 20
183.395331
 11
82.936503
 21
183.986436
  0
ARC
  8
CSLAYER1
  6
CONTINUOUS
 62
     6
 10
83.373017
 20
181.649324
 40
0.436508
 50
90.000001
 51
179.942691
  0
ARC
  8
CSLAYER1
  6
CONTINUOUS
 62
     6
 10
83.373017
 20
183.395331
 40
0.436508
 50
180.000010
 51
270.000016
  0
ARC
  8
CSLAYER1
  6
CONTINUOUS
 62
     6
 10
81.626963
 20
183.395331
 40
0.436508
 50
-89.999984
 51
0.000005
  0
ARC
  8
CSLAYER1
  6
CONTINUOUS
 62
     6
 10
81.626963
 20
181.649324
 40
0.436508
 50
0.000005
 51
89.942654
  0
CIRCLE
  8
CSLAYER1
  6
CONTINUOUS
 62
     6
 10
82.500000
 20
182.522327
 40
2.750000
  0
LINE
  8
CSLAYER1
  6
CONTINUOUS
 62
     6
 10
75.000000
 20
187.222327
 11
90.000000
 21
187.222327
  0
LINE
  8
CSLAYER1
  6
CONTINUOUS
 62
     6
 10
75.000000
 20
186.222327
 11
90.000000
 21
186.222327
  0
ARC
  8
CSLAYER1
  6
CONTINUOUS
 62
     6
 10
82.499990
 20
190.922328
 40
1.527778
 50
163.398416
 51
196.601577
  0
ARC
  8
CSLAYER1
  6
CONTINUOUS
 62
     6
 10
82.499990
 20
190.922328
 40
1.527778
 50
253.398422
 51
286.601583
  0
ARC
  8
CSLAYER1
  6
CONTINUOUS
 62
     6
 10
82.499990
 20
190.922328
 40
1.527778
 50
-16.601562
 51
16.601572
  0
ARC
  8
CSLAYER1
  6
CONTINUOUS
 62
     6
 10
82.499990
 20
190.922328
 40
1.527778
 50
73.398406
 51
106.601595
  0
LINE
  8
CSLAYER1
  6
CONTINUOUS
 62
     6
 10
83.373017
 20
190.485814
 11
83.964075
 21
190.485814
  0
LINE
  8
CSLAYER1
  6
CONTINUOUS
 62
     6
 10
81.626963
 20
190.485814
 11
81.035905
 21
190.485814
  0
LINE
  8
CSLAYER1
  6
CONTINUOUS
 62
     6
 10
83.373017
 20
191.358841
 11
83.964075
 21
191.358841
  0
LINE
  8
CSLAYER1
  6
CONTINUOUS
 62
     6
 10
81.626963
 20
191.358841
 11
81.035905
 21
191.358841
  0
LINE
  8
CSLAYER1
  6
CONTINUOUS
 62
     6
 10
82.063477
 20
190.049324
 11
82.063477
 21
189.458219
  0
LINE
  8
CSLAYER1
  6
CONTINUOUS
 62
     6
 10
82.063477
 20
191.795331
 11
82.063477
 21
192.386436
  0
LINE
  8
CSLAYER1
  6
CONTINUOUS
 62
     6
 10
82.936503
 20
190.049324
 11
82.936503
 21
189.458219
  0
LINE
  8
CSLAYER1
  6
CONTINUOUS
 62
     6
 10
82.936503
 20
191.795331
 11
82.936503
 21
192.386436
  0
ARC
  8
CSLAYER1
  6
CONTINUOUS
 62
     6
 10
83.373017
 20
190.049324
 40
0.436508
 50
90.000001
 51
179.942691
  0
ARC
  8
CSLAYER1
  6
CONTINUOUS
 62
     6
 10
83.373017
 20
191.795331
 40
0.436508
 50
180.000010
 51
270.000016
  0
ARC
  8
CSLAYER1
  6
CONTINUOUS
 62
     6
 10
81.626963
 20
191.795331
 40
0.436508
 50
-89.999984
 51
0.000005
  0
ARC
  8
CSLAYER1
  6
CONTINUOUS
 62
     6
 10
81.626963
 20
190.049324
 40
0.436508
 50
0.000005
 51
89.942654
  0
CIRCLE
  8
CSLAYER1
  6
CONTINUOUS
 62
     6
 10
82.500000
 20
190.922327
 40
2.750000
  0
LINE
  8
CSLAYER1
  6
CONTINUOUS
 62
     6
 10
75.000000
 20
169.422327
 11
90.000000
 21
169.422327
  0
LINE
  8
CSLAYER1
  6
CONTINUOUS
 62
     6
 10
75.000000
 20
170.422327
 11
90.000000
 21
170.422327
  0
ARC
  8
CSLAYER1
  6
CONTINUOUS
 62
     6
 10
82.499990
 20
165.722326
 40
1.527778
 50
163.398423
 51
196.601584
  0
ARC
  8
CSLAYER1
  6
CONTINUOUS
 62
     6
 10
82.499990
 20
165.722326
 40
1.527778
 50
73.398417
 51
106.601578
  0
ARC
  8
CSLAYER1
  6
CONTINUOUS
 62
     6
 10
82.499990
 20
165.722326
 40
1.527778
 50
-16.601572
 51
16.601562
  0
ARC
  8
CSLAYER1
  6
CONTINUOUS
 62
     6
 10
82.499990
 20
165.722326
 40
1.527778
 50
253.398405
 51
286.601594
  0
LINE
  8
CSLAYER1
  6
CONTINUOUS
 62
     6
 10
83.373017
 20
166.158840
 11
83.964075
 21
166.158840
  0
LINE
  8
CSLAYER1
  6
CONTINUOUS
 62
     6
 10
81.626963
 20
166.158840
 11
81.035905
 21
166.158840
  0
LINE
  8
CSLAYER1
  6
CONTINUOUS
 62
     6
 10
83.373017
 20
165.285813
 11
83.964075
 21
165.285813
  0
LINE
  8
CSLAYER1
  6
CONTINUOUS
 62
     6
 10
81.626963
 20
165.285813
 11
81.035905
 21
165.285813
  0
LINE
  8
CSLAYER1
  6
CONTINUOUS
 62
     6
 10
82.063477
 20
166.595330
 11
82.063477
 21
167.186435
  0
LINE
  8
CSLAYER1
  6
CONTINUOUS
 62
     6
 10
82.063477
 20
164.849323
 11
82.063477
 21
164.258218
  0
LINE
  8
CSLAYER1
  6
CONTINUOUS
 62
     6
 10
82.936503
 20
166.595330
 11
82.936503
 21
167.186435
  0
LINE
  8
CSLAYER1
  6
CONTINUOUS
 62
     6
 10
82.936503
 20
164.849323
 11
82.936503
 21
164.258218
  0
ARC
  8
CSLAYER1
  6
CONTINUOUS
 62
     6
 10
83.373017
 20
166.595330
 40
0.436508
 50
180.057309
 51
269.999999
  0
ARC
  8
CSLAYER1
  6
CONTINUOUS
 62
     6
 10
83.373017
 20
164.849323
 40
0.436508
 50
89.999984
 51
179.999990
  0
ARC
  8
CSLAYER1
  6
CONTINUOUS
 62
     6
 10
81.626963
 20
164.849323
 40
0.436508
 50
-0.000005
 51
89.999984
  0
ARC
  8
CSLAYER1
  6
CONTINUOUS
 62
     6
 10
81.626963
 20
166.595330
 40
0.436508
 50
270.057346
 51
359.999995
  0
CIRCLE
  8
CSLAYER1
  6
CONTINUOUS
 62
     6
 10
82.500000
 20
165.722327
 40
2.750000
  0
LINE
  8
CSLAYER1
  6
CONTINUOUS
 62
     6
 10
75.000000
 20
177.822327
 11
90.000000
 21
177.822327
  0
LINE
  8
CSLAYER1
  6
CONTINUOUS
 62
     6
 10
75.000000
 20
178.822327
 11
90.000000
 21
178.822327
  0
ARC
  8
CSLAYER1
  6
CONTINUOUS
 62
     6
 10
82.499990
 20
174.122326
 40
1.527778
 50
163.398423
 51
196.601584
  0
ARC
  8
CSLAYER1
  6
CONTINUOUS
 62
     6
 10
82.499990
 20
174.122326
 40
1.527778
 50
73.398417
 51
106.601578
  0
ARC
  8
CSLAYER1
  6
CONTINUOUS
 62
     6
 10
82.499990
 20
174.122326
 40
1.527778
 50
-16.601572
 51
16.601562
  0
ARC
  8
CSLAYER1
  6
CONTINUOUS
 62
     6
 10
82.499990
 20
174.122326
 40
1.527778
 50
253.398405
 51
286.601594
  0
LINE
  8
CSLAYER1
  6
CONTINUOUS
 62
     6
 10
83.373017
 20
174.558840
 11
83.964075
 21
174.558840
  0
LINE
  8
CSLAYER1
  6
CONTINUOUS
 62
     6
 10
81.626963
 20
174.558840
 11
81.035905
 21
174.558840
  0
LINE
  8
CSLAYER1
  6
CONTINUOUS
 62
     6
 10
83.373017
 20
173.685813
 11
83.964075
 21
173.685813
  0
LINE
  8
CSLAYER1
  6
CONTINUOUS
 62
     6
 10
81.626963
 20
173.685813
 11
81.035905
 21
173.685813
  0
LINE
  8
CSLAYER1
  6
CONTINUOUS
 62
     6
 10
82.063477
 20
174.995330
 11
82.063477
 21
175.586435
  0
LINE
  8
CSLAYER1
  6
CONTINUOUS
 62
     6
 10
82.063477
 20
173.249323
 11
82.063477
 21
172.658218
  0
LINE
  8
CSLAYER1
  6
CONTINUOUS
 62
     6
 10
82.936503
 20
174.995330
 11
82.936503
 21
175.586435
  0
LINE
  8
CSLAYER1
  6
CONTINUOUS
 62
     6
 10
82.936503
 20
173.249323
 11
82.936503
 21
172.658218
  0
ARC
  8
CSLAYER1
  6
CONTINUOUS
 62
     6
 10
83.373017
 20
174.995330
 40
0.436508
 50
180.057309
 51
269.999999
  0
ARC
  8
CSLAYER1
  6
CONTINUOUS
 62
     6
 10
83.373017
 20
173.249323
 40
0.436508
 50
89.999984
 51
179.999990
  0
ARC
  8
CSLAYER1
  6
CONTINUOUS
 62
     6
 10
81.626963
 20
173.249323
 40
0.436508
 50
-0.000005
 51
89.999984
  0
ARC
  8
CSLAYER1
  6
CONTINUOUS
 62
     6
 10
81.626963
 20
174.995330
 40
0.436508
 50
270.057346
 51
359.999995
  0
CIRCLE
  8
CSLAYER1
  6
CONTINUOUS
 62
     6
 10
82.500000
 20
174.122327
 40
2.750000
  0
ARC
  8
CSLAYER1
  6
CONTINUOUS
 62
     7
 10
145.500000
 20
275.022327
 40
2.000000
 50
90.000000
 51
180.000000
  0
CIRCLE
  8
CSLAYER1
  6
CONTINUOUS
 62
     7
 10
252.500000
 20
270.022327
 40
1.500000
  0
CIRCLE
  8
CSLAYER1
  6
CONTINUOUS
 62
     7
 10
172.500000
 20
270.022327
 40
1.500000
  0
CIRCLE
  8
CSLAYER1
  6
CONTINUOUS
 62
     7
 10
172.500000
 20
101.022327
 40
1.500000
  0
CIRCLE
  8
CSLAYER1
  6
CONTINUOUS
 62
     7
 10
252.500000
 20
101.022327
 40
1.500000
  0
LINE
  8
CSLAYER1
  6
DOT
 62
     3
 10
162.500000
 20
165.906102
 11
162.500000
 21
203.169084
  0
LINE
  8
CSLAYER1
  6
DOT
 62
     3
 10
202.500000
 20
129.779152
 11
202.500000
 21
143.818197
  0
LINE
  8
CSLAYER1
  6
DOT
 62
     3
 10
192.500000
 20
129.779152
 11
192.500000
 21
143.818197
  0
LINE
  8
CSLAYER1
  6
DOT
 62
     3
 10
182.500000
 20
129.779152
 11
182.500000
 21
143.818197
  0
LINE
  8
CSLAYER1
  6
DOT
 62
     3
 10
191.077158
 20
136.022327
 11
177.535885
 21
136.022327
  0
LINE
  8
CSLAYER1
  6
DOT
 62
     3
 10
209.523584
 20
136.522327
 11
187.846786
 21
136.522327
  0
LINE
  8
CSLAYER1
  6
DOT
 62
     3
 10
166.500000
 20
113.779152
 11
166.500000
 21
127.818197
  0
LINE
  8
CSLAYER1
  6
DOT
 62
     3
 10
170.776776
 20
120.022327
 11
161.535885
 21
120.022327
  0
LINE
  8
CSLAYER1
  6
DOT
 62
     3
 10
190.500000
 20
107.387762
 11
190.500000
 21
121.071389
  0
LINE
  8
CSLAYER1
  6
DOT
 62
     3
 10
196.550795
 20
114.022327
 11
184.466554
 21
114.022327
  0
LINE
  8
CSLAYER1
  6
DOT
 62
     3
 10
203.500000
 20
111.830498
 11
203.500000
 21
124.980997
  0
LINE
  8
CSLAYER1
  6
DOT
 62
     3
 10
212.500000
 20
111.830498
 11
212.500000
 21
124.980997
  0
LINE
  8
CSLAYER1
  6
DOT
 62
     3
 10
219.830732
 20
118.022327
 11
196.373086
 21
118.022327
  0
LINE
  8
CSLAYER1
  6
DOT
 62
     3
 10
168.500000
 20
165.906102
 11
168.500000
 21
203.169084
  0
LINE
  8
CSLAYER1
  6
DOT
 62
     3
 10
335.000000
 20
101.022327
 11
344.000000
 21
101.022327
  0
LINE
  8
CSLAYER1
  6
DOT
 62
     3
 10
339.500000
 20
105.522327
 11
339.500000
 21
96.522327
  0
LINE
  8
CSLAYER1
  6
DOT
 62
     3
 10
248.000000
 20
270.022327
 11
257.000000
 21
270.022327
  0
LINE
  8
CSLAYER1
  6
DOT
 62
     3
 10
252.500000
 20
274.522327
 11
252.500000
 21
265.522327
  0
LINE
  8
CSLAYER1
  6
DOT
 62
     3
 10
168.000000
 20
270.022327
 11
177.000000
 21
270.022327
  0
LINE
  8
CSLAYER1
  6
DOT
 62
     3
 10
172.500000
 20
274.522327
 11
172.500000
 21
265.522327
  0
LINE
  8
CSLAYER1
  6
DOT
 62
     3
 10
168.000000
 20
101.022327
 11
177.000000
 21
101.022327
  0
LINE
  8
CSLAYER1
  6
DOT
 62
     3
 10
172.500000
 20
105.522327
 11
172.500000
 21
96.522327
  0
LINE
  8
CSLAYER1
  6
DOT
 62
     3
 10
248.000000
 20
101.022327
 11
257.000000
 21
101.022327
  0
LINE
  8
CSLAYER1
  6
DOT
 62
     3
 10
252.500000
 20
105.522327
 11
252.500000
 21
96.522327
  0
ENDSEC
  0
EOF
