  0
SECTION
  2
HEADER
  9
$ACADVER
  1
AC1006
  9
$INSBASE
 10
0.000000
 20
0.000000
 30
0.0
  9
$EXTMIN
 10
0.000000
 20
0.000000
  9
$EXTMAX
 10
210.000000
 20
297.000000
  9
$LIMMIN
 10
0.000000
 20
0.000000
  9
$LIMMAX
 10
210.000000
 20
297.000000
  9
$VIEWCTR
 10
105.000000
 20
148.500000
  9
$VIEWSIZE
 40
297.000000
  9
$SNAPMODE
 70
     0
  9
$SNAPUNIT
 10
1.0
 20
1.0
  9
$SNAPBASE
 10
0.0
 20
0.0
  9
$SNAPANG
 50
0.0
  9
$SNAPSTYLE
 70
     0
  9
$SNAPISOPAIR
 70
     0
  9
$GRIDMODE
 70
     0
  9
$GRIDUNIT
 10
0.0
 20
0.0
  9
$ORTHOMODE
 70
     0
  9
$REGENMODE
 70
     1
  9
$FILLMODE
 70
     1
  9
$QTEXTMODE
 70
     0
  9
$DRAGMODE
 70
     2
  9
$LTSCALE
 40
15.000000
  9
$OSMODE
 70
     0
  9
$ATTMODE
 70
     1
  9
$TEXTSIZE
 40
0.2
  9
$TRACEWID
 40
0.05
  9
$TEXTSTYLE
  7
STANDARD
  9
$CLAYER
  8
CSLAYER1
  9
$CELTYPE
  6
BYLAYER
  9
$CECOLOR
 62
   256
  9
$DIMSCALE
 40
1.0
  9
$DIMASZ
 40
0.18
  9
$DIMEXO
 40
0.0625
  9
$DIMDLI
 40
0.38
  9
$DIMRND
 40
0.0
  9
$DIMDLE
 40
0.0
  9
$DIMEXE
 40
0.18
  9
$DIMTP
 40
0.0
  9
$DIMTM
 40
0.0
  9
$DIMTXT
 40
0.18
  9
$DIMCEN
 40
0.09
  9
$DIMTSZ
 40
0.0
  9
$DIMTOL
 70
     0
  9
$DIMLIM
 70
     0
  9
$DIMTIH
 70
     1
  9
$DIMTOH
 70
     1
  9
$DIMSE1
 70
     0
  9
$DIMSE2
 70
     0
  9
$DIMTAD
 70
     0
  9
$DIMZIN
 70
     0
  9
$DIMBLK
  1

  9
$LUNITS
 70
     2
  9
$LUPREC
 70
     4
  9
$AXISMODE
 70
     0
  9
$AXISUNIT
 10
0.0
 20
0.0
  9
$SKETCHINC
 40
0.1
  9
$FILLETRAD
 40
0.0
  9
$AUNITS
 70
     0
  9
$AUPREC
 70
     0
  9
$MENU
  1
ACAD
  9
$ELEVATION
 40
0.0
  9
$THICKNESS
 40
0.0
  9
$VIEWDIR
 10
0.0
 20
0.0
 30
1.0
  9
$LIMCHECK
 70
     0
  9
$BLIPMODE
 70
     1
  9
$CHAMFERA
 40
0.0
  9
$CHAMFERB
 40
0.0
  9
$FASTZOOM
 70
     1
  9
$SKPOLY
 70
     0
  9
$TDCREATE
 40
2454214.000000
  9
$TDUPDATE
 40
2454223.000000
  9
$TDINDWG
 40
0.0
  9
$TDUSRTIMER
 40
0.0
  9
$USRTIMER
 70
     1
  9
$ANGBASE
 50
0.0
  9
$ANGDIR
 70
     0
  9
$PDMODE
 70
     0
  9
$PDSIZE
 40
0.0
  9
$PLINEWID
 40
0.0
  9
$COORDS
 70
     0
  9
$USERI1
 70
     0
  9
$USERI2
 70
     0
  9
$USERI3
 70
     0
  9
$USERI4
 70
     0
  9
$USERI5
 70
     0
  9
$USERR1
 40
0.0
  9
$USERR2
 40
0.0
  9
$USERR3
 40
0.0
  9
$USERR4
 40
0.0
  9
$USERR5
 40
0.0
  0
ENDSEC
  0
SECTION
  2
TABLES
  0
TABLE
  2
LTYPE
 70
     9
  0
LTYPE
  2
CONTINUOUS
 70
    64
  3
Solid line
 72
    65
 73
     0
 40
0.0
  0
LTYPE
  2
DASHED
 70
    64
  3
__ __ __ __ __ __ __ __ __ __ __ __ __ __ __
 72
    65
 73
     2
 40
0.75
 49
0.5
 49
-0.25
  0
LTYPE
  2
HIDDEN
 70
    64
  3
_ _ _ _ _ _ _ _ _ _ _ _ _ _ _ _ _ _ _ _ _ _ _
 72
    65
 73
     2
 40
0.375
 49
0.25
 49
-0.125
  0
LTYPE
  2
DOT
 70
    64
  3
...............................................
 72
    65
 73
     2
 40
0.25
 49
0.0
 49
-0.25
  0
LTYPE
  2
DASHDOT
 70
    64
  3
__ . __ . __ . __ . __ . __ . __ . __ . __ . __
 72
    65
 73
     4
 40
1.0
 49
0.5
 49
-0.25
 49
0.0
 49
-0.25
  0
LTYPE
  2
DIVIDE
 70
    64
  3
__ . . __ . . __ . . __ . . __ . . __ . . __
 72
    65
 73
     6
 40
1.25
 49
0.5
 49
-0.25
 49
0.0
 49
-0.25
 49
0.0
 49
-0.25
  0
LTYPE
  2
CENTER
 70
    64
  3
____ _ ____ _ ____ _ ____ _ ____ _ ____ _ ____ 
 72
    65
 73
     4
 40
2.0
 49
1.25
 49
-0.25
 49
0.25
 49
-0.25
  0
LTYPE
  2
PHANTOM
 70
    64
  3
______  __  __  ______  __  __  ______  __  __ 
 72
    65
 73
     6
 40
2.5
 49
1.25
 49
-0.25
 49
0.25
 49
-0.25
 49
0.25
 49
-0.25
  0
LTYPE
  2
BORDER
 70
    64
  3
__ __ . __ __ . __ __ . __ __ . __ __ . __ __ .
 72
    65
 73
     6
 40
1.75
 49
0.5
 49
-0.25
 49
0.5
 49
-0.25
 49
0.0
 49
-0.25
  0
ENDTAB
  0
TABLE
  2
LAYER
 70
    16
  0
LAYER
  2
CSLAYER1
 70
    64
 62
     7
  6
CONTINUOUS
  0
LAYER
  2
CSLAYER2
 70
    64
 62
     7
  6
CONTINUOUS
  0
LAYER
  2
CSLAYER3
 70
    64
 62
     7
  6
CONTINUOUS
  0
LAYER
  2
CSLAYER4
 70
    64
 62
     7
  6
CONTINUOUS
  0
LAYER
  2
CSLAYER5
 70
    64
 62
     7
  6
CONTINUOUS
  0
LAYER
  2
CSLAYER6
 70
    64
 62
     7
  6
CONTINUOUS
  0
LAYER
  2
CSLAYER7
 70
    64
 62
     7
  6
CONTINUOUS
  0
LAYER
  2
CSLAYER8
 70
    64
 62
     7
  6
CONTINUOUS
  0
LAYER
  2
CSLAYER9
 70
    64
 62
     7
  6
CONTINUOUS
  0
LAYER
  2
CSLAYER10
 70
    64
 62
     7
  6
CONTINUOUS
  0
LAYER
  2
CSLAYER11
 70
    64
 62
     7
  6
CONTINUOUS
  0
LAYER
  2
CSLAYER12
 70
    64
 62
     7
  6
CONTINUOUS
  0
LAYER
  2
CSLAYER13
 70
    64
 62
     7
  6
CONTINUOUS
  0
LAYER
  2
CSLAYER14
 70
    64
 62
     7
  6
CONTINUOUS
  0
LAYER
  2
CSLAYER15
 70
    64
 62
     7
  6
CONTINUOUS
  0
LAYER
  2
CSLAYER16
 70
    64
 62
     7
  6
CONTINUOUS
  0
ENDTAB
  0
TABLE
  2
STYLE
 70
     1
  0
STYLE
  2
FX_FONT
 70
     0
 40
1.0
 41
1.0
 50
0.0
 71
     0
 42
1.0
  3
monotxt
  4
bigfont
  0
ENDTAB
  0
TABLE
  2
VIEW
 70
     0
  0
ENDTAB
  0
ENDSEC
  0
SECTION
  2
BLOCKS
  0
ENDSEC
  0
SECTION
  2
ENTITIES
  0
POINT
  8
CSLAYER1
 62
     3
 10
149.001963
 20
215.181753
  0
CIRCLE
  8
CSLAYER1
  6
CONTINUOUS
 62
     6
 10
149.001963
 20
215.181753
 40
11.000000
  0
LINE
  8
CSLAYER1
  6
CONTINUOUS
 62
     6
 10
192.500000
 20
149.844255
 11
80.500000
 21
149.844255
  0
LINE
  8
CSLAYER1
  6
CONTINUOUS
 62
     6
 10
80.500000
 20
149.844255
 11
80.500000
 21
228.844255
  0
LINE
  8
CSLAYER1
  6
CONTINUOUS
 62
     6
 10
83.500000
 20
231.844255
 11
189.500000
 21
231.844255
  0
LINE
  8
CSLAYER1
  6
CONTINUOUS
 62
     6
 10
192.500000
 20
228.844255
 11
192.500000
 21
149.844255
  0
LINE
  8
CSLAYER1
  6
CENTER
 62
     3
 10
84.500000
 20
161.094255
 11
84.500000
 21
170.594255
  0
LINE
  8
CSLAYER1
  6
CENTER
 62
     3
 10
79.750000
 20
215.844255
 11
89.250000
 21
215.844255
  0
CIRCLE
  8
CSLAYER1
  6
CONTINUOUS
 62
     6
 10
84.500000
 20
215.844255
 40
1.750000
  0
CIRCLE
  8
CSLAYER1
  6
CONTINUOUS
 62
     6
 10
84.500000
 20
165.844255
 40
1.750000
  0
LINE
  8
CSLAYER1
  6
CONTINUOUS
 62
     6
 10
192.500000
 20
151.444255
 11
80.500000
 21
151.444255
  0
LINE
  8
CSLAYER1
  6
CENTER
 62
     3
 10
89.250000
 20
165.844255
 11
79.750000
 21
165.844255
  0
LINE
  8
CSLAYER1
  6
CENTER
 62
     3
 10
84.500000
 20
211.094255
 11
84.500000
 21
220.594255
  0
ARC
  8
CSLAYER1
  6
CONTINUOUS
 62
     6
 10
83.500000
 20
228.844255
 40
3.000000
 50
90.000000
 51
180.000000
  0
ARC
  8
CSLAYER1
  6
CONTINUOUS
 62
     6
 10
189.500000
 20
228.844255
 40
3.000000
 50
0.000000
 51
90.000000
  0
CIRCLE
  8
CSLAYER1
  6
CONTINUOUS
 62
     3
 10
135.001963
 20
193.344253
 40
2.000000
  0
LINE
  8
CSLAYER1
  6
CENTER
 62
     3
 10
160.000620
 20
114.844255
 11
170.388877
 21
114.844253
  0
LINE
  8
CSLAYER1
  6
CENTER
 62
     3
 10
110.250620
 20
114.844255
 11
120.388877
 21
114.844253
  0
TEXT
  8
CSLAYER1
 62
     3
 10
144.089523
 20
35.476463
 40
4.000000
 41
0.771429
  1
MS-10　SERIES
 50
0.000000
 51
10.000000
  7
FX_FONT
 72
     5
 11
180.089523
 21
35.476463
  0
TEXT
  8
CSLAYER1
 62
     4
 10
144.089523
 20
29.476463
 40
3.500000
 41
1.071429
  1
尺度1：1
 50
0.000000
 51
10.000000
  7
FX_FONT
 72
     5
 11
161.589523
 21
29.476463
  0
TEXT
  8
CSLAYER1
 62
     3
 10
144.089523
 20
41.476463
 40
4.000000
 41
1.038462
  1
DCモータドライバ
 50
0.000000
 51
10.000000
  7
FX_FONT
 72
     5
 11
180.089523
 21
41.476463
  0
LINE
  8
CSLAYER1
  6
CONTINUOUS
 62
     6
 10
29.100000
 20
153.344255
 11
29.100000
 21
228.344255
  0
LINE
  8
CSLAYER1
  6
CONTINUOUS
 62
     6
 10
30.600000
 20
153.344255
 11
30.600000
 21
228.344255
  0
LINE
  8
CSLAYER1
  6
CONTINUOUS
 62
     6
 10
30.600000
 20
228.344255
 11
29.100000
 21
228.344255
  0
LINE
  8
CSLAYER1
  6
CONTINUOUS
 62
     6
 10
30.600000
 20
153.344255
 11
29.100000
 21
153.344255
  0
LINE
  8
CSLAYER1
  6
CONTINUOUS
 62
     3
 10
177.001963
 20
217.677587
 11
172.001963
 21
217.677587
  0
LINE
  8
CSLAYER1
  6
CENTER
 62
     3
 10
92.000000
 20
228.571533
 11
92.000000
 21
218.116976
  0
CIRCLE
  8
CSLAYER1
  6
CONTINUOUS
 62
     6
 10
92.000006
 20
223.344265
 40
2.500000
  0
ARC
  8
CSLAYER1
  6
CONTINUOUS
 62
     6
 10
91.999997
 20
223.344266
 40
1.388889
 50
163.398416
 51
196.601577
  0
ARC
  8
CSLAYER1
  6
CONTINUOUS
 62
     6
 10
91.999997
 20
223.344266
 40
1.388889
 50
253.398422
 51
286.601583
  0
ARC
  8
CSLAYER1
  6
CONTINUOUS
 62
     6
 10
91.999997
 20
223.344266
 40
1.388889
 50
-16.601562
 51
16.601572
  0
ARC
  8
CSLAYER1
  6
CONTINUOUS
 62
     6
 10
91.999997
 20
223.344266
 40
1.388889
 50
73.398406
 51
106.601595
  0
LINE
  8
CSLAYER1
  6
CONTINUOUS
 62
     6
 10
92.793657
 20
222.947435
 11
93.330983
 21
222.947435
  0
LINE
  8
CSLAYER1
  6
CONTINUOUS
 62
     6
 10
91.206336
 20
222.947435
 11
90.669010
 21
222.947435
  0
LINE
  8
CSLAYER1
  6
CONTINUOUS
 62
     6
 10
92.793657
 20
223.741096
 11
93.330983
 21
223.741096
  0
LINE
  8
CSLAYER1
  6
CONTINUOUS
 62
     6
 10
91.206336
 20
223.741096
 11
90.669010
 21
223.741096
  0
LINE
  8
CSLAYER1
  6
CONTINUOUS
 62
     6
 10
91.603167
 20
222.550626
 11
91.603167
 21
222.013258
  0
LINE
  8
CSLAYER1
  6
CONTINUOUS
 62
     6
 10
91.603167
 20
224.137906
 11
91.603167
 21
224.675273
  0
LINE
  8
CSLAYER1
  6
CONTINUOUS
 62
     6
 10
92.396827
 20
222.550626
 11
92.396827
 21
222.013258
  0
LINE
  8
CSLAYER1
  6
CONTINUOUS
 62
     6
 10
92.396827
 20
224.137906
 11
92.396827
 21
224.675273
  0
ARC
  8
CSLAYER1
  6
CONTINUOUS
 62
     6
 10
92.793657
 20
222.550626
 40
0.396825
 50
90.000001
 51
179.942691
  0
ARC
  8
CSLAYER1
  6
CONTINUOUS
 62
     6
 10
92.793657
 20
224.137906
 40
0.396825
 50
180.000010
 51
270.000016
  0
ARC
  8
CSLAYER1
  6
CONTINUOUS
 62
     6
 10
91.206336
 20
224.137906
 40
0.396825
 50
-89.999984
 51
0.000005
  0
ARC
  8
CSLAYER1
  6
CONTINUOUS
 62
     6
 10
91.206336
 20
222.550626
 40
0.396825
 50
0.000005
 51
89.942654
  0
LINE
  8
CSLAYER1
  6
CENTER
 62
     3
 10
86.772721
 20
223.344255
 11
97.227279
 21
223.344255
  0
LINE
  8
CSLAYER1
  6
CENTER
 62
     3
 10
35.694813
 20
158.344255
 11
17.100000
 21
158.344255
  0
LINE
  8
CSLAYER1
  6
CENTER
 62
     3
 10
35.694813
 20
223.344255
 11
17.100000
 21
223.344255
  0
LINE
  8
CSLAYER1
  6
CONTINUOUS
 62
     6
 10
92.529411
 20
218.469253
 11
92.529411
 21
163.219253
  0
LINE
  8
CSLAYER1
  6
CONTINUOUS
 62
     6
 10
105.529411
 20
218.469253
 11
105.529411
 21
163.219253
  0
LINE
  8
CSLAYER1
  6
CONTINUOUS
 62
     6
 10
105.529411
 20
218.469253
 11
92.529411
 21
218.469253
  0
LINE
  8
CSLAYER1
  6
CONTINUOUS
 62
     6
 10
105.529411
 20
217.469253
 11
92.529411
 21
217.469253
  0
LINE
  8
CSLAYER1
  6
CONTINUOUS
 62
     3
 10
94.029411
 20
217.469253
 11
94.029411
 21
210.719253
  0
LINE
  8
CSLAYER1
  6
CONTINUOUS
 62
     3
 10
103.729411
 20
217.469253
 11
103.729411
 21
210.719253
  0
LINE
  8
CSLAYER1
  6
CONTINUOUS
 62
     3
 10
103.729411
 20
194.219253
 11
103.729411
 21
187.469253
  0
LINE
  8
CSLAYER1
  6
CONTINUOUS
 62
     3
 10
94.029411
 20
194.219253
 11
94.029411
 21
187.469253
  0
LINE
  8
CSLAYER1
  6
CONTINUOUS
 62
     3
 10
94.029411
 20
201.969253
 11
94.029411
 21
195.219253
  0
LINE
  8
CSLAYER1
  6
CONTINUOUS
 62
     3
 10
103.729411
 20
201.969253
 11
103.729411
 21
195.219253
  0
LINE
  8
CSLAYER1
  6
CONTINUOUS
 62
     3
 10
94.029411
 20
209.719253
 11
94.029411
 21
202.969253
  0
LINE
  8
CSLAYER1
  6
CONTINUOUS
 62
     3
 10
103.729411
 20
209.719253
 11
103.729411
 21
202.969253
  0
POINT
  8
CSLAYER1
 62
     3
 10
98.879411
 20
214.094253
  0
LINE
  8
CSLAYER1
  6
CONTINUOUS
 62
     6
 10
101.629411
 20
216.969253
 11
101.629411
 21
211.219253
  0
LINE
  8
CSLAYER1
  6
CONTINUOUS
 62
     6
 10
96.129411
 20
216.969253
 11
96.129411
 21
211.219253
  0
LINE
  8
CSLAYER1
  6
CONTINUOUS
 62
     6
 10
96.129411
 20
216.969253
 11
101.629411
 21
216.969253
  0
LINE
  8
CSLAYER1
  6
CONTINUOUS
 62
     6
 10
96.129411
 20
211.219253
 11
101.629411
 21
211.219253
  0
LINE
  8
CSLAYER1
  6
CONTINUOUS
 62
     6
 10
102.629411
 20
216.094253
 11
102.629411
 21
212.094253
  0
LINE
  8
CSLAYER1
  6
CONTINUOUS
 62
     6
 10
95.129411
 20
216.094253
 11
95.129411
 21
212.094253
  0
LINE
  8
CSLAYER1
  6
CONTINUOUS
 62
     6
 10
102.629411
 20
216.094253
 11
101.629411
 21
216.094253
  0
LINE
  8
CSLAYER1
  6
CONTINUOUS
 62
     6
 10
102.629411
 20
212.094253
 11
101.629411
 21
212.094253
  0
LINE
  8
CSLAYER1
  6
CONTINUOUS
 62
     6
 10
96.129411
 20
216.094253
 11
95.129411
 21
216.094253
  0
LINE
  8
CSLAYER1
  6
CONTINUOUS
 62
     6
 10
96.129411
 20
212.094253
 11
95.129411
 21
212.094253
  0
LINE
  8
CSLAYER1
  6
CONTINUOUS
 62
     6
 10
105.529411
 20
209.719253
 11
92.529411
 21
209.719253
  0
LINE
  8
CSLAYER1
  6
CONTINUOUS
 62
     6
 10
105.529411
 20
210.719253
 11
92.529411
 21
210.719253
  0
LINE
  8
CSLAYER1
  6
CONTINUOUS
 62
     6
 10
105.529411
 20
201.969253
 11
92.529411
 21
201.969253
  0
LINE
  8
CSLAYER1
  6
CONTINUOUS
 62
     6
 10
105.529411
 20
202.969253
 11
92.529411
 21
202.969253
  0
LINE
  8
CSLAYER1
  6
CONTINUOUS
 62
     6
 10
105.529411
 20
194.219253
 11
92.529411
 21
194.219253
  0
LINE
  8
CSLAYER1
  6
CONTINUOUS
 62
     6
 10
105.529411
 20
195.219253
 11
92.529411
 21
195.219253
  0
POINT
  8
CSLAYER1
 62
     3
 10
98.879411
 20
206.344253
  0
LINE
  8
CSLAYER1
  6
CONTINUOUS
 62
     6
 10
101.629411
 20
209.219253
 11
101.629411
 21
203.469253
  0
LINE
  8
CSLAYER1
  6
CONTINUOUS
 62
     6
 10
96.129411
 20
209.219253
 11
96.129411
 21
203.469253
  0
LINE
  8
CSLAYER1
  6
CONTINUOUS
 62
     6
 10
96.129411
 20
209.219253
 11
101.629411
 21
209.219253
  0
LINE
  8
CSLAYER1
  6
CONTINUOUS
 62
     6
 10
96.129411
 20
203.469253
 11
101.629411
 21
203.469253
  0
LINE
  8
CSLAYER1
  6
CONTINUOUS
 62
     6
 10
102.629411
 20
208.344253
 11
102.629411
 21
204.344253
  0
LINE
  8
CSLAYER1
  6
CONTINUOUS
 62
     6
 10
95.129411
 20
208.344253
 11
95.129411
 21
204.344253
  0
LINE
  8
CSLAYER1
  6
CONTINUOUS
 62
     6
 10
102.629411
 20
208.344253
 11
101.629411
 21
208.344253
  0
LINE
  8
CSLAYER1
  6
CONTINUOUS
 62
     6
 10
102.629411
 20
204.344253
 11
101.629411
 21
204.344253
  0
LINE
  8
CSLAYER1
  6
CONTINUOUS
 62
     6
 10
96.129411
 20
208.344253
 11
95.129411
 21
208.344253
  0
LINE
  8
CSLAYER1
  6
CONTINUOUS
 62
     6
 10
96.129411
 20
204.344253
 11
95.129411
 21
204.344253
  0
POINT
  8
CSLAYER1
 62
     3
 10
98.879411
 20
198.594253
  0
LINE
  8
CSLAYER1
  6
CONTINUOUS
 62
     6
 10
101.629411
 20
201.469253
 11
101.629411
 21
195.719253
  0
LINE
  8
CSLAYER1
  6
CONTINUOUS
 62
     6
 10
96.129411
 20
201.469253
 11
96.129411
 21
195.719253
  0
LINE
  8
CSLAYER1
  6
CONTINUOUS
 62
     6
 10
96.129411
 20
201.469253
 11
101.629411
 21
201.469253
  0
LINE
  8
CSLAYER1
  6
CONTINUOUS
 62
     6
 10
96.129411
 20
195.719253
 11
101.629411
 21
195.719253
  0
LINE
  8
CSLAYER1
  6
CONTINUOUS
 62
     6
 10
102.629411
 20
200.594253
 11
102.629411
 21
196.594253
  0
LINE
  8
CSLAYER1
  6
CONTINUOUS
 62
     6
 10
95.129411
 20
200.594253
 11
95.129411
 21
196.594253
  0
LINE
  8
CSLAYER1
  6
CONTINUOUS
 62
     6
 10
102.629411
 20
200.594253
 11
101.629411
 21
200.594253
  0
LINE
  8
CSLAYER1
  6
CONTINUOUS
 62
     6
 10
102.629411
 20
196.594253
 11
101.629411
 21
196.594253
  0
LINE
  8
CSLAYER1
  6
CONTINUOUS
 62
     6
 10
96.129411
 20
200.594253
 11
95.129411
 21
200.594253
  0
LINE
  8
CSLAYER1
  6
CONTINUOUS
 62
     6
 10
96.129411
 20
196.594253
 11
95.129411
 21
196.594253
  0
POINT
  8
CSLAYER1
 62
     3
 10
98.879411
 20
190.844253
  0
LINE
  8
CSLAYER1
  6
CONTINUOUS
 62
     6
 10
101.629411
 20
193.719253
 11
101.629411
 21
187.969253
  0
LINE
  8
CSLAYER1
  6
CONTINUOUS
 62
     6
 10
96.129411
 20
193.719253
 11
96.129411
 21
187.969253
  0
LINE
  8
CSLAYER1
  6
CONTINUOUS
 62
     6
 10
96.129411
 20
193.719253
 11
101.629411
 21
193.719253
  0
LINE
  8
CSLAYER1
  6
CONTINUOUS
 62
     6
 10
102.629411
 20
192.844253
 11
102.629411
 21
188.844253
  0
LINE
  8
CSLAYER1
  6
CONTINUOUS
 62
     6
 10
95.129411
 20
192.844253
 11
95.129411
 21
188.844253
  0
LINE
  8
CSLAYER1
  6
CONTINUOUS
 62
     6
 10
102.629411
 20
192.844253
 11
101.629411
 21
192.844253
  0
LINE
  8
CSLAYER1
  6
CONTINUOUS
 62
     6
 10
96.129411
 20
192.844253
 11
95.129411
 21
192.844253
  0
LINE
  8
CSLAYER1
  6
CONTINUOUS
 62
     6
 10
105.529411
 20
163.219253
 11
92.529411
 21
163.219253
  0
LINE
  8
CSLAYER1
  6
CONTINUOUS
 62
     6
 10
105.529411
 20
164.219253
 11
92.529411
 21
164.219253
  0
LINE
  8
CSLAYER1
  6
CONTINUOUS
 62
     3
 10
94.029411
 20
164.219253
 11
94.029411
 21
170.969253
  0
LINE
  8
CSLAYER1
  6
CONTINUOUS
 62
     3
 10
103.729411
 20
164.219253
 11
103.729411
 21
170.969253
  0
LINE
  8
CSLAYER1
  6
CONTINUOUS
 62
     3
 10
94.029411
 20
179.719253
 11
94.029411
 21
186.469253
  0
LINE
  8
CSLAYER1
  6
CONTINUOUS
 62
     3
 10
103.729411
 20
179.719253
 11
103.729411
 21
186.469253
  0
LINE
  8
CSLAYER1
  6
CONTINUOUS
 62
     3
 10
94.029411
 20
171.969253
 11
94.029411
 21
178.719253
  0
LINE
  8
CSLAYER1
  6
CONTINUOUS
 62
     3
 10
103.729411
 20
171.969253
 11
103.729411
 21
178.719253
  0
POINT
  8
CSLAYER1
 62
     3
 10
98.879411
 20
167.594253
  0
LINE
  8
CSLAYER1
  6
CONTINUOUS
 62
     6
 10
101.629411
 20
164.719253
 11
101.629411
 21
170.469253
  0
LINE
  8
CSLAYER1
  6
CONTINUOUS
 62
     6
 10
96.129411
 20
164.719253
 11
96.129411
 21
170.469253
  0
LINE
  8
CSLAYER1
  6
CONTINUOUS
 62
     6
 10
96.129411
 20
164.719253
 11
101.629411
 21
164.719253
  0
LINE
  8
CSLAYER1
  6
CONTINUOUS
 62
     6
 10
96.129411
 20
170.469253
 11
101.629411
 21
170.469253
  0
LINE
  8
CSLAYER1
  6
CONTINUOUS
 62
     6
 10
102.629411
 20
165.594253
 11
102.629411
 21
169.594253
  0
LINE
  8
CSLAYER1
  6
CONTINUOUS
 62
     6
 10
95.129411
 20
165.594253
 11
95.129411
 21
169.594253
  0
LINE
  8
CSLAYER1
  6
CONTINUOUS
 62
     6
 10
102.629411
 20
165.594253
 11
101.629411
 21
165.594253
  0
LINE
  8
CSLAYER1
  6
CONTINUOUS
 62
     6
 10
102.629411
 20
169.594253
 11
101.629411
 21
169.594253
  0
LINE
  8
CSLAYER1
  6
CONTINUOUS
 62
     6
 10
96.129411
 20
165.594253
 11
95.129411
 21
165.594253
  0
LINE
  8
CSLAYER1
  6
CONTINUOUS
 62
     6
 10
96.129411
 20
169.594253
 11
95.129411
 21
169.594253
  0
LINE
  8
CSLAYER1
  6
CONTINUOUS
 62
     6
 10
105.529411
 20
171.969253
 11
92.529411
 21
171.969253
  0
LINE
  8
CSLAYER1
  6
CONTINUOUS
 62
     6
 10
105.529411
 20
170.969253
 11
92.529411
 21
170.969253
  0
LINE
  8
CSLAYER1
  6
CONTINUOUS
 62
     6
 10
105.529411
 20
179.719253
 11
92.529411
 21
179.719253
  0
LINE
  8
CSLAYER1
  6
CONTINUOUS
 62
     6
 10
105.529411
 20
178.719253
 11
92.529411
 21
178.719253
  0
LINE
  8
CSLAYER1
  6
CONTINUOUS
 62
     6
 10
105.529411
 20
187.469253
 11
92.529411
 21
187.469253
  0
LINE
  8
CSLAYER1
  6
CONTINUOUS
 62
     6
 10
105.529411
 20
186.469253
 11
92.529411
 21
186.469253
  0
POINT
  8
CSLAYER1
 62
     3
 10
98.879411
 20
175.344253
  0
LINE
  8
CSLAYER1
  6
CONTINUOUS
 62
     6
 10
101.629411
 20
172.469253
 11
101.629411
 21
178.219253
  0
LINE
  8
CSLAYER1
  6
CONTINUOUS
 62
     6
 10
96.129411
 20
172.469253
 11
96.129411
 21
178.219253
  0
LINE
  8
CSLAYER1
  6
CONTINUOUS
 62
     6
 10
96.129411
 20
172.469253
 11
101.629411
 21
172.469253
  0
LINE
  8
CSLAYER1
  6
CONTINUOUS
 62
     6
 10
96.129411
 20
178.219253
 11
101.629411
 21
178.219253
  0
LINE
  8
CSLAYER1
  6
CONTINUOUS
 62
     6
 10
102.629411
 20
173.344253
 11
102.629411
 21
177.344253
  0
LINE
  8
CSLAYER1
  6
CONTINUOUS
 62
     6
 10
95.129411
 20
173.344253
 11
95.129411
 21
177.344253
  0
LINE
  8
CSLAYER1
  6
CONTINUOUS
 62
     6
 10
102.629411
 20
173.344253
 11
101.629411
 21
173.344253
  0
LINE
  8
CSLAYER1
  6
CONTINUOUS
 62
     6
 10
102.629411
 20
177.344253
 11
101.629411
 21
177.344253
  0
LINE
  8
CSLAYER1
  6
CONTINUOUS
 62
     6
 10
96.129411
 20
173.344253
 11
95.129411
 21
173.344253
  0
LINE
  8
CSLAYER1
  6
CONTINUOUS
 62
     6
 10
96.129411
 20
177.344253
 11
95.129411
 21
177.344253
  0
POINT
  8
CSLAYER1
 62
     3
 10
98.879411
 20
183.094253
  0
LINE
  8
CSLAYER1
  6
CONTINUOUS
 62
     6
 10
101.629411
 20
180.219253
 11
101.629411
 21
185.969253
  0
LINE
  8
CSLAYER1
  6
CONTINUOUS
 62
     6
 10
96.129411
 20
180.219253
 11
96.129411
 21
185.969253
  0
LINE
  8
CSLAYER1
  6
CONTINUOUS
 62
     6
 10
96.129411
 20
180.219253
 11
101.629411
 21
180.219253
  0
LINE
  8
CSLAYER1
  6
CONTINUOUS
 62
     6
 10
96.129411
 20
185.969253
 11
101.629411
 21
185.969253
  0
LINE
  8
CSLAYER1
  6
CONTINUOUS
 62
     6
 10
102.629411
 20
181.094253
 11
102.629411
 21
185.094253
  0
LINE
  8
CSLAYER1
  6
CONTINUOUS
 62
     6
 10
95.129411
 20
181.094253
 11
95.129411
 21
185.094253
  0
LINE
  8
CSLAYER1
  6
CONTINUOUS
 62
     6
 10
102.629411
 20
181.094253
 11
101.629411
 21
181.094253
  0
LINE
  8
CSLAYER1
  6
CONTINUOUS
 62
     6
 10
102.629411
 20
185.094253
 11
101.629411
 21
185.094253
  0
LINE
  8
CSLAYER1
  6
CONTINUOUS
 62
     6
 10
96.129411
 20
181.094253
 11
95.129411
 21
181.094253
  0
LINE
  8
CSLAYER1
  6
CONTINUOUS
 62
     6
 10
96.129411
 20
185.094253
 11
95.129411
 21
185.094253
  0
LINE
  8
CSLAYER1
  6
CONTINUOUS
 62
     6
 10
96.129411
 20
187.969253
 11
101.629411
 21
187.969253
  0
LINE
  8
CSLAYER1
  6
CONTINUOUS
 62
     6
 10
102.629411
 20
188.844253
 11
101.629411
 21
188.844253
  0
LINE
  8
CSLAYER1
  6
CONTINUOUS
 62
     6
 10
96.129411
 20
188.844253
 11
95.129411
 21
188.844253
  0
LINE
  8
CSLAYER1
  6
CENTER
 62
     3
 10
92.000000
 20
163.571533
 11
92.000000
 21
153.116976
  0
CIRCLE
  8
CSLAYER1
  6
CONTINUOUS
 62
     6
 10
92.000006
 20
158.344265
 40
2.500000
  0
ARC
  8
CSLAYER1
  6
CONTINUOUS
 62
     6
 10
91.999997
 20
158.344266
 40
1.388889
 50
163.398416
 51
196.601577
  0
ARC
  8
CSLAYER1
  6
CONTINUOUS
 62
     6
 10
91.999997
 20
158.344266
 40
1.388889
 50
253.398422
 51
286.601583
  0
ARC
  8
CSLAYER1
  6
CONTINUOUS
 62
     6
 10
91.999997
 20
158.344266
 40
1.388889
 50
-16.601562
 51
16.601572
  0
ARC
  8
CSLAYER1
  6
CONTINUOUS
 62
     6
 10
91.999997
 20
158.344266
 40
1.388889
 50
73.398406
 51
106.601595
  0
LINE
  8
CSLAYER1
  6
CONTINUOUS
 62
     6
 10
92.793657
 20
157.947435
 11
93.330983
 21
157.947435
  0
LINE
  8
CSLAYER1
  6
CONTINUOUS
 62
     6
 10
91.206336
 20
157.947435
 11
90.669010
 21
157.947435
  0
LINE
  8
CSLAYER1
  6
CONTINUOUS
 62
     6
 10
92.793657
 20
158.741096
 11
93.330983
 21
158.741096
  0
LINE
  8
CSLAYER1
  6
CONTINUOUS
 62
     6
 10
91.206336
 20
158.741096
 11
90.669010
 21
158.741096
  0
LINE
  8
CSLAYER1
  6
CONTINUOUS
 62
     6
 10
91.603167
 20
157.550626
 11
91.603167
 21
157.013258
  0
LINE
  8
CSLAYER1
  6
CONTINUOUS
 62
     6
 10
91.603167
 20
159.137906
 11
91.603167
 21
159.675273
  0
LINE
  8
CSLAYER1
  6
CONTINUOUS
 62
     6
 10
92.396827
 20
157.550626
 11
92.396827
 21
157.013258
  0
LINE
  8
CSLAYER1
  6
CONTINUOUS
 62
     6
 10
92.396827
 20
159.137906
 11
92.396827
 21
159.675273
  0
ARC
  8
CSLAYER1
  6
CONTINUOUS
 62
     6
 10
92.793657
 20
157.550626
 40
0.396825
 50
90.000001
 51
179.942691
  0
ARC
  8
CSLAYER1
  6
CONTINUOUS
 62
     6
 10
92.793657
 20
159.137906
 40
0.396825
 50
180.000010
 51
270.000016
  0
ARC
  8
CSLAYER1
  6
CONTINUOUS
 62
     6
 10
91.206336
 20
159.137906
 40
0.396825
 50
-89.999984
 51
0.000005
  0
ARC
  8
CSLAYER1
  6
CONTINUOUS
 62
     6
 10
91.206336
 20
157.550626
 40
0.396825
 50
0.000005
 51
89.942654
  0
LINE
  8
CSLAYER1
  6
CENTER
 62
     3
 10
86.772721
 20
158.344255
 11
97.227279
 21
158.344255
  0
LINE
  8
CSLAYER1
  6
CENTER
 62
     3
 10
182.000000
 20
163.571533
 11
182.000000
 21
153.116976
  0
CIRCLE
  8
CSLAYER1
  6
CONTINUOUS
 62
     6
 10
182.000006
 20
158.344265
 40
2.500000
  0
ARC
  8
CSLAYER1
  6
CONTINUOUS
 62
     6
 10
181.999997
 20
158.344266
 40
1.388889
 50
163.398416
 51
196.601577
  0
ARC
  8
CSLAYER1
  6
CONTINUOUS
 62
     6
 10
181.999997
 20
158.344266
 40
1.388889
 50
253.398422
 51
286.601583
  0
ARC
  8
CSLAYER1
  6
CONTINUOUS
 62
     6
 10
181.999997
 20
158.344266
 40
1.388889
 50
-16.601562
 51
16.601572
  0
ARC
  8
CSLAYER1
  6
CONTINUOUS
 62
     6
 10
181.999997
 20
158.344266
 40
1.388889
 50
73.398406
 51
106.601595
  0
LINE
  8
CSLAYER1
  6
CONTINUOUS
 62
     6
 10
182.793657
 20
157.947435
 11
183.330983
 21
157.947435
  0
LINE
  8
CSLAYER1
  6
CONTINUOUS
 62
     6
 10
181.206336
 20
157.947435
 11
180.669010
 21
157.947435
  0
LINE
  8
CSLAYER1
  6
CONTINUOUS
 62
     6
 10
182.793657
 20
158.741096
 11
183.330983
 21
158.741096
  0
LINE
  8
CSLAYER1
  6
CONTINUOUS
 62
     6
 10
181.206336
 20
158.741096
 11
180.669010
 21
158.741096
  0
LINE
  8
CSLAYER1
  6
CONTINUOUS
 62
     6
 10
181.603167
 20
157.550626
 11
181.603167
 21
157.013258
  0
LINE
  8
CSLAYER1
  6
CONTINUOUS
 62
     6
 10
181.603167
 20
159.137906
 11
181.603167
 21
159.675273
  0
LINE
  8
CSLAYER1
  6
CONTINUOUS
 62
     6
 10
182.396827
 20
157.550626
 11
182.396827
 21
157.013258
  0
LINE
  8
CSLAYER1
  6
CONTINUOUS
 62
     6
 10
182.396827
 20
159.137906
 11
182.396827
 21
159.675273
  0
ARC
  8
CSLAYER1
  6
CONTINUOUS
 62
     6
 10
182.793657
 20
157.550626
 40
0.396825
 50
90.000001
 51
179.942691
  0
ARC
  8
CSLAYER1
  6
CONTINUOUS
 62
     6
 10
182.793657
 20
159.137906
 40
0.396825
 50
180.000010
 51
270.000016
  0
ARC
  8
CSLAYER1
  6
CONTINUOUS
 62
     6
 10
181.206336
 20
159.137906
 40
0.396825
 50
-89.999984
 51
0.000005
  0
ARC
  8
CSLAYER1
  6
CONTINUOUS
 62
     6
 10
181.206336
 20
157.550626
 40
0.396825
 50
0.000005
 51
89.942654
  0
LINE
  8
CSLAYER1
  6
CENTER
 62
     3
 10
176.772721
 20
158.344255
 11
187.227279
 21
158.344255
  0
LINE
  8
CSLAYER1
  6
CENTER
 62
     3
 10
182.000000
 20
228.571533
 11
182.000000
 21
218.116976
  0
CIRCLE
  8
CSLAYER1
  6
CONTINUOUS
 62
     6
 10
182.000006
 20
223.344265
 40
2.500000
  0
ARC
  8
CSLAYER1
  6
CONTINUOUS
 62
     6
 10
181.999997
 20
223.344266
 40
1.388889
 50
163.398416
 51
196.601577
  0
ARC
  8
CSLAYER1
  6
CONTINUOUS
 62
     6
 10
181.999997
 20
223.344266
 40
1.388889
 50
253.398422
 51
286.601583
  0
ARC
  8
CSLAYER1
  6
CONTINUOUS
 62
     6
 10
181.999997
 20
223.344266
 40
1.388889
 50
-16.601562
 51
16.601572
  0
ARC
  8
CSLAYER1
  6
CONTINUOUS
 62
     6
 10
181.999997
 20
223.344266
 40
1.388889
 50
73.398406
 51
106.601595
  0
LINE
  8
CSLAYER1
  6
CONTINUOUS
 62
     6
 10
182.793657
 20
222.947435
 11
183.330983
 21
222.947435
  0
LINE
  8
CSLAYER1
  6
CONTINUOUS
 62
     6
 10
181.206336
 20
222.947435
 11
180.669010
 21
222.947435
  0
LINE
  8
CSLAYER1
  6
CONTINUOUS
 62
     6
 10
182.793657
 20
223.741096
 11
183.330983
 21
223.741096
  0
LINE
  8
CSLAYER1
  6
CONTINUOUS
 62
     6
 10
181.206336
 20
223.741096
 11
180.669010
 21
223.741096
  0
LINE
  8
CSLAYER1
  6
CONTINUOUS
 62
     6
 10
181.603167
 20
222.550626
 11
181.603167
 21
222.013258
  0
LINE
  8
CSLAYER1
  6
CONTINUOUS
 62
     6
 10
181.603167
 20
224.137906
 11
181.603167
 21
224.675273
  0
LINE
  8
CSLAYER1
  6
CONTINUOUS
 62
     6
 10
182.396827
 20
222.550626
 11
182.396827
 21
222.013258
  0
LINE
  8
CSLAYER1
  6
CONTINUOUS
 62
     6
 10
182.396827
 20
224.137906
 11
182.396827
 21
224.675273
  0
ARC
  8
CSLAYER1
  6
CONTINUOUS
 62
     6
 10
182.793657
 20
222.550626
 40
0.396825
 50
90.000001
 51
179.942691
  0
ARC
  8
CSLAYER1
  6
CONTINUOUS
 62
     6
 10
182.793657
 20
224.137906
 40
0.396825
 50
180.000010
 51
270.000016
  0
ARC
  8
CSLAYER1
  6
CONTINUOUS
 62
     6
 10
181.206336
 20
224.137906
 40
0.396825
 50
-89.999984
 51
0.000005
  0
ARC
  8
CSLAYER1
  6
CONTINUOUS
 62
     6
 10
181.206336
 20
222.550626
 40
0.396825
 50
0.000005
 51
89.942654
  0
LINE
  8
CSLAYER1
  6
CENTER
 62
     3
 10
176.772721
 20
223.344255
 11
187.227279
 21
223.344255
  0
LINE
  8
CSLAYER1
  6
CENTER
 62
     3
 10
184.250000
 20
215.844255
 11
192.750000
 21
215.844255
  0
ARC
  8
CSLAYER1
  6
CONTINUOUS
 62
     6
 10
188.500000
 20
215.844255
 40
1.750000
 50
-148.997319
 51
148.997319
  0
LINE
  8
CSLAYER1
  6
CENTER
 62
     3
 10
188.500000
 20
211.594255
 11
188.500000
 21
220.094255
  0
LINE
  8
CSLAYER1
  6
CONTINUOUS
 62
     6
 10
86.999999
 20
153.344253
 11
86.999999
 21
228.344253
  0
LINE
  8
CSLAYER1
  6
CONTINUOUS
 62
     6
 10
186.999999
 20
153.344253
 11
86.999999
 21
153.344253
  0
LINE
  8
CSLAYER1
  6
CONTINUOUS
 62
     6
 10
186.999999
 20
228.344253
 11
186.999999
 21
153.344253
  0
LINE
  8
CSLAYER1
  6
CONTINUOUS
 62
     6
 10
86.999999
 20
228.344253
 11
186.999999
 21
228.344253
  0
LINE
  8
CSLAYER1
  6
CONTINUOUS
 62
     6
 10
108.529411
 20
166.344253
 11
108.529411
 21
155.344253
  0
LINE
  8
CSLAYER1
  6
CONTINUOUS
 62
     6
 10
115.672268
 20
166.344253
 11
115.672268
 21
155.344253
  0
LINE
  8
CSLAYER1
  6
CONTINUOUS
 62
     6
 10
115.672268
 20
155.344253
 11
108.529411
 21
155.344253
  0
LINE
  8
CSLAYER1
  6
CONTINUOUS
 62
     6
 10
115.672268
 20
166.344253
 11
108.529411
 21
166.344253
  0
LINE
  8
CSLAYER1
  6
CONTINUOUS
 62
     6
 10
132.293914
 20
172.344253
 11
176.293914
 21
172.344253
  0
LINE
  8
CSLAYER1
  6
CONTINUOUS
 62
     6
 10
174.319444
 20
167.370462
 11
174.643914
 21
154.994253
  0
LINE
  8
CSLAYER1
  6
CONTINUOUS
 62
     6
 10
171.268041
 20
168.344253
 11
173.319788
 21
168.344253
  0
LINE
  8
CSLAYER1
  6
CONTINUOUS
 62
     6
 10
176.293914
 20
172.344253
 11
175.943914
 21
154.994253
  0
ARC
  8
CSLAYER1
  6
CONTINUOUS
 62
     6
 10
175.293914
 20
154.994253
 40
0.650000
 50
-180.000000
 51
0.000000
  0
ARC
  8
CSLAYER1
  6
CONTINUOUS
 62
     6
 10
169.293914
 20
154.994253
 40
0.650000
 50
-180.000000
 51
0.000000
  0
LINE
  8
CSLAYER1
  6
CONTINUOUS
 62
     6
 10
168.319444
 20
167.370462
 11
168.643914
 21
154.994253
  0
LINE
  8
CSLAYER1
  6
CONTINUOUS
 62
     6
 10
170.268384
 20
167.370462
 11
169.943914
 21
154.994253
  0
ARC
  8
CSLAYER1
  6
CONTINUOUS
 62
     6
 10
163.293914
 20
154.994253
 40
0.650000
 50
-180.000000
 51
0.000000
  0
LINE
  8
CSLAYER1
  6
CONTINUOUS
 62
     6
 10
162.319444
 20
167.370462
 11
162.643914
 21
154.994253
  0
LINE
  8
CSLAYER1
  6
CONTINUOUS
 62
     6
 10
164.268384
 20
167.370462
 11
163.943914
 21
154.994253
  0
ARC
  8
CSLAYER1
  6
CONTINUOUS
 62
     6
 10
157.293914
 20
154.994253
 40
0.650000
 50
-180.000000
 51
0.000000
  0
LINE
  8
CSLAYER1
  6
CONTINUOUS
 62
     6
 10
156.319444
 20
167.370462
 11
156.643914
 21
154.994253
  0
LINE
  8
CSLAYER1
  6
CONTINUOUS
 62
     6
 10
158.268384
 20
167.370462
 11
157.943914
 21
154.994253
  0
ARC
  8
CSLAYER1
  6
CONTINUOUS
 62
     6
 10
151.293914
 20
154.994253
 40
0.650000
 50
-180.000000
 51
0.000000
  0
LINE
  8
CSLAYER1
  6
CONTINUOUS
 62
     6
 10
150.319444
 20
167.370462
 11
150.643914
 21
154.994253
  0
LINE
  8
CSLAYER1
  6
CONTINUOUS
 62
     6
 10
152.268384
 20
167.370462
 11
151.943914
 21
154.994253
  0
ARC
  8
CSLAYER1
  6
CONTINUOUS
 62
     6
 10
145.293914
 20
154.994253
 40
0.650000
 50
-180.000000
 51
0.000000
  0
LINE
  8
CSLAYER1
  6
CONTINUOUS
 62
     6
 10
144.319444
 20
167.370462
 11
144.643914
 21
154.994253
  0
LINE
  8
CSLAYER1
  6
CONTINUOUS
 62
     6
 10
146.268384
 20
167.370462
 11
145.943914
 21
154.994253
  0
ARC
  8
CSLAYER1
  6
CONTINUOUS
 62
     6
 10
139.293914
 20
154.994253
 40
0.650000
 50
-180.000000
 51
0.000000
  0
LINE
  8
CSLAYER1
  6
CONTINUOUS
 62
     6
 10
138.319444
 20
167.370462
 11
138.643914
 21
154.994253
  0
LINE
  8
CSLAYER1
  6
CONTINUOUS
 62
     6
 10
140.268384
 20
167.370462
 11
139.943914
 21
154.994253
  0
ARC
  8
CSLAYER1
  6
CONTINUOUS
 62
     6
 10
133.293914
 20
154.994253
 40
0.650000
 50
-180.000000
 51
0.000000
  0
LINE
  8
CSLAYER1
  6
CONTINUOUS
 62
     6
 10
132.293914
 20
172.344253
 11
132.643914
 21
154.994253
  0
LINE
  8
CSLAYER1
  6
CONTINUOUS
 62
     6
 10
134.268384
 20
167.370462
 11
133.943914
 21
154.994253
  0
LINE
  8
CSLAYER1
  6
CONTINUOUS
 62
     6
 10
135.268041
 20
168.344253
 11
137.319788
 21
168.344253
  0
LINE
  8
CSLAYER1
  6
CONTINUOUS
 62
     6
 10
141.268041
 20
168.344253
 11
143.319788
 21
168.344253
  0
LINE
  8
CSLAYER1
  6
CONTINUOUS
 62
     6
 10
147.268041
 20
168.344253
 11
149.319788
 21
168.344253
  0
LINE
  8
CSLAYER1
  6
CONTINUOUS
 62
     6
 10
153.268041
 20
168.344253
 11
155.319788
 21
168.344253
  0
LINE
  8
CSLAYER1
  6
CONTINUOUS
 62
     6
 10
159.268041
 20
168.344253
 11
161.319788
 21
168.344253
  0
LINE
  8
CSLAYER1
  6
CONTINUOUS
 62
     6
 10
165.268041
 20
168.344253
 11
167.319788
 21
168.344253
  0
ARC
  8
CSLAYER1
  6
CONTINUOUS
 62
     6
 10
171.268041
 20
167.344253
 40
1.000000
 50
90.000000
 51
178.498207
  0
ARC
  8
CSLAYER1
  6
CONTINUOUS
 62
     6
 10
173.319788
 20
167.344253
 40
1.000000
 50
1.501793
 51
90.000000
  0
ARC
  8
CSLAYER1
  6
CONTINUOUS
 62
     6
 10
165.268041
 20
167.344253
 40
1.000000
 50
90.000000
 51
178.498207
  0
ARC
  8
CSLAYER1
  6
CONTINUOUS
 62
     6
 10
167.319788
 20
167.344253
 40
1.000000
 50
1.501793
 51
90.000000
  0
ARC
  8
CSLAYER1
  6
CONTINUOUS
 62
     6
 10
159.268041
 20
167.344253
 40
1.000000
 50
90.000000
 51
178.498207
  0
ARC
  8
CSLAYER1
  6
CONTINUOUS
 62
     6
 10
161.319788
 20
167.344253
 40
1.000000
 50
1.501793
 51
90.000000
  0
ARC
  8
CSLAYER1
  6
CONTINUOUS
 62
     6
 10
155.319788
 20
167.344253
 40
1.000000
 50
1.501793
 51
90.000000
  0
ARC
  8
CSLAYER1
  6
CONTINUOUS
 62
     6
 10
153.268041
 20
167.344253
 40
1.000000
 50
90.000000
 51
178.498207
  0
ARC
  8
CSLAYER1
  6
CONTINUOUS
 62
     6
 10
149.319788
 20
167.344253
 40
1.000000
 50
1.501793
 51
90.000000
  0
ARC
  8
CSLAYER1
  6
CONTINUOUS
 62
     6
 10
147.268041
 20
167.344253
 40
1.000000
 50
90.000000
 51
178.498207
  0
ARC
  8
CSLAYER1
  6
CONTINUOUS
 62
     6
 10
143.319788
 20
167.344253
 40
1.000000
 50
1.501793
 51
90.000000
  0
ARC
  8
CSLAYER1
  6
CONTINUOUS
 62
     6
 10
141.268041
 20
167.344253
 40
1.000000
 50
90.000000
 51
178.498207
  0
ARC
  8
CSLAYER1
  6
CONTINUOUS
 62
     6
 10
137.319788
 20
167.344253
 40
1.000000
 50
1.501793
 51
90.000000
  0
ARC
  8
CSLAYER1
  6
CONTINUOUS
 62
     6
 10
135.268041
 20
167.344253
 40
1.000000
 50
90.000000
 51
178.498207
  0
LINE
  8
CSLAYER1
  6
CONTINUOUS
 62
     6
 10
159.793914
 20
173.544253
 11
174.793914
 21
173.544253
  0
LINE
  8
CSLAYER1
  6
CONTINUOUS
 62
     6
 10
174.793914
 20
176.344253
 11
174.793914
 21
172.344253
  0
LINE
  8
CSLAYER1
  6
CONTINUOUS
 62
     6
 10
159.793914
 20
176.344253
 11
159.793914
 21
172.344253
  0
LINE
  8
CSLAYER1
  6
CONTINUOUS
 62
     6
 10
159.793914
 20
176.344253
 11
174.793914
 21
176.344253
  0
LINE
  8
CSLAYER1
  6
CONTINUOUS
 62
     6
 10
171.793914
 20
173.544253
 11
171.793914
 21
176.344253
  0
LINE
  8
CSLAYER1
  6
CONTINUOUS
 62
     6
 10
162.793914
 20
173.544253
 11
162.793914
 21
176.344253
  0
LINE
  8
CSLAYER1
  6
CONTINUOUS
 62
     6
 10
173.293914
 20
173.544253
 11
173.293914
 21
172.344253
  0
LINE
  8
CSLAYER1
  6
CONTINUOUS
 62
     6
 10
161.293913
 20
173.544255
 11
161.293913
 21
172.344255
  0
LINE
  8
CSLAYER1
  6
CONTINUOUS
 62
     3
 10
142.701963
 20
197.591887
 11
139.501963
 21
197.591887
  0
LINE
  8
CSLAYER1
  6
CONTINUOUS
 62
     3
 10
139.001963
 20
197.091887
 11
139.001963
 21
183.091887
  0
LINE
  8
CSLAYER1
  6
CONTINUOUS
 62
     3
 10
139.501963
 20
182.591887
 11
142.701963
 21
182.591887
  0
LINE
  8
CSLAYER1
  6
CONTINUOUS
 62
     3
 10
143.201963
 20
183.091887
 11
143.201963
 21
197.091887
  0
ARC
  8
CSLAYER1
  6
CONTINUOUS
 62
     3
 10
139.501963
 20
197.091887
 40
0.500000
 50
90.000000
 51
180.000000
  0
ARC
  8
CSLAYER1
  6
CONTINUOUS
 62
     3
 10
142.701963
 20
197.091887
 40
0.500000
 50
0.000000
 51
90.000000
  0
ARC
  8
CSLAYER1
  6
CONTINUOUS
 62
     3
 10
139.501963
 20
183.091887
 40
0.500000
 50
180.000000
 51
270.000000
  0
ARC
  8
CSLAYER1
  6
CONTINUOUS
 62
     3
 10
142.701963
 20
183.091887
 40
0.500000
 50
270.000000
 51
360.000000
  0
LINE
  8
CSLAYER1
  6
CONTINUOUS
 62
     3
 10
108.529411
 20
214.031753
 11
108.529411
 21
211.031753
  0
LINE
  8
CSLAYER1
  6
CONTINUOUS
 62
     3
 10
108.529411
 20
214.031753
 11
129.529411
 21
214.031753
  0
LINE
  8
CSLAYER1
  6
CONTINUOUS
 62
     3
 10
129.529411
 20
214.031753
 11
129.529411
 21
211.031753
  0
LINE
  8
CSLAYER1
  6
CONTINUOUS
 62
     3
 10
108.529411
 20
211.031753
 11
129.529411
 21
211.031753
  0
LINE
  8
CSLAYER1
  6
CONTINUOUS
 62
     6
 10
117.279411
 20
208.031753
 11
114.779411
 21
208.031753
  0
LINE
  8
CSLAYER1
  6
CONTINUOUS
 62
     6
 10
117.279411
 20
206.031753
 11
117.279411
 21
208.031753
  0
LINE
  8
CSLAYER1
  6
CONTINUOUS
 62
     6
 10
114.779411
 20
206.031753
 11
114.779411
 21
208.031753
  0
LINE
  8
CSLAYER1
  6
CONTINUOUS
 62
     6
 10
112.279411
 20
206.031753
 11
112.279411
 21
208.031753
  0
LINE
  8
CSLAYER1
  6
CONTINUOUS
 62
     6
 10
109.779411
 20
206.031753
 11
109.779411
 21
208.031753
  0
LINE
  8
CSLAYER1
  6
CONTINUOUS
 62
     6
 10
112.279411
 20
208.031753
 11
109.779411
 21
208.031753
  0
LINE
  8
CSLAYER1
  6
CONTINUOUS
 62
     6
 10
118.529411
 20
206.031753
 11
108.529411
 21
206.031753
  0
LINE
  8
CSLAYER1
  6
CONTINUOUS
 62
     6
 10
108.529411
 20
206.031753
 11
108.529411
 21
178.031753
  0
LINE
  8
CSLAYER1
  6
CONTINUOUS
 62
     6
 10
108.529411
 20
178.031753
 11
118.529411
 21
178.031753
  0
LINE
  8
CSLAYER1
  6
CONTINUOUS
 62
     6
 10
118.529411
 20
178.031753
 11
118.529411
 21
206.031753
  0
LINE
  8
CSLAYER1
  6
CONTINUOUS
 62
     3
 10
149.551963
 20
195.091887
 11
145.051963
 21
195.091887
  0
LINE
  8
CSLAYER1
  6
CONTINUOUS
 62
     3
 10
145.051963
 20
195.091887
 11
145.051963
 21
185.091887
  0
LINE
  8
CSLAYER1
  6
CONTINUOUS
 62
     3
 10
145.051963
 20
185.091887
 11
149.551963
 21
185.091887
  0
LINE
  8
CSLAYER1
  6
CONTINUOUS
 62
     3
 10
149.551963
 20
185.091887
 11
149.551963
 21
195.091887
  0
LINE
  8
CSLAYER1
  6
CONTINUOUS
 62
     3
 10
146.051963
 20
195.091887
 11
146.051963
 21
185.091887
  0
LINE
  8
CSLAYER1
  6
CONTINUOUS
 62
     3
 10
137.001963
 20
187.091887
 11
132.501963
 21
187.091887
  0
LINE
  8
CSLAYER1
  6
CONTINUOUS
 62
     3
 10
132.501963
 20
187.091887
 11
132.501963
 21
177.091887
  0
LINE
  8
CSLAYER1
  6
CONTINUOUS
 62
     3
 10
132.501963
 20
177.091887
 11
137.001963
 21
177.091887
  0
LINE
  8
CSLAYER1
  6
CONTINUOUS
 62
     3
 10
137.001963
 20
177.091887
 11
137.001963
 21
187.091887
  0
LINE
  8
CSLAYER1
  6
CONTINUOUS
 62
     3
 10
133.501963
 20
187.091887
 11
133.501963
 21
177.091887
  0
LINE
  8
CSLAYER1
  6
CONTINUOUS
 62
     3
 10
129.796542
 20
165.344253
 11
123.796542
 21
165.344253
  0
LINE
  8
CSLAYER1
  6
CONTINUOUS
 62
     3
 10
123.796542
 20
165.344253
 11
123.796542
 21
157.344253
  0
LINE
  8
CSLAYER1
  6
CONTINUOUS
 62
     3
 10
123.796542
 20
157.344253
 11
129.796542
 21
157.344253
  0
LINE
  8
CSLAYER1
  6
CONTINUOUS
 62
     3
 10
129.796542
 20
157.344253
 11
129.796542
 21
165.344253
  0
LINE
  8
CSLAYER1
  6
CONTINUOUS
 62
     3
 10
48.500000
 20
163.219255
 11
48.500000
 21
218.469255
  0
LINE
  8
CSLAYER1
  6
CONTINUOUS
 62
     3
 10
46.000000
 20
163.219255
 11
46.000000
 21
218.469255
  0
LINE
  8
CSLAYER1
  6
CONTINUOUS
 62
     3
 10
46.000000
 20
218.469255
 11
48.500000
 21
218.469255
  0
LINE
  8
CSLAYER1
  6
CONTINUOUS
 62
     3
 10
46.000000
 20
163.219255
 11
48.500000
 21
163.219255
  0
LINE
  8
CSLAYER1
  6
CONTINUOUS
 62
     6
 10
47.500000
 20
186.469255
 11
47.500000
 21
187.469255
  0
LINE
  8
CSLAYER1
  6
CONTINUOUS
 62
     6
 10
47.500000
 20
218.469255
 11
30.600000
 21
218.469255
  0
LINE
  8
CSLAYER1
  6
CONTINUOUS
 62
     6
 10
47.500000
 20
217.469255
 11
35.952593
 21
217.469255
  0
LINE
  8
CSLAYER1
  6
CONTINUOUS
 62
     6
 10
47.500000
 20
210.719255
 11
35.952593
 21
210.719255
  0
LINE
  8
CSLAYER1
  6
CONTINUOUS
 62
     6
 10
47.500000
 20
209.719255
 11
35.952593
 21
209.719255
  0
LINE
  8
CSLAYER1
  6
CONTINUOUS
 62
     6
 10
47.500000
 20
202.969255
 11
35.952593
 21
202.969255
  0
LINE
  8
CSLAYER1
  6
CONTINUOUS
 62
     6
 10
47.500000
 20
201.969255
 11
35.952593
 21
201.969255
  0
LINE
  8
CSLAYER1
  6
CONTINUOUS
 62
     6
 10
47.500000
 20
195.219255
 11
35.952593
 21
195.219255
  0
LINE
  8
CSLAYER1
  6
CONTINUOUS
 62
     6
 10
47.500000
 20
194.219255
 11
35.952593
 21
194.219255
  0
LINE
  8
CSLAYER1
  6
CONTINUOUS
 62
     6
 10
47.500000
 20
186.469255
 11
35.952593
 21
186.469255
  0
LINE
  8
CSLAYER1
  6
CONTINUOUS
 62
     6
 10
47.500000
 20
187.469255
 11
35.952593
 21
187.469255
  0
LINE
  8
CSLAYER1
  6
CONTINUOUS
 62
     6
 10
40.952593
 20
187.469255
 11
40.952593
 21
194.219255
  0
LINE
  8
CSLAYER1
  6
CONTINUOUS
 62
     6
 10
35.952593
 20
187.469255
 11
35.952593
 21
194.219255
  0
LINE
  8
CSLAYER1
  6
CONTINUOUS
 62
     6
 10
40.952593
 20
195.219255
 11
40.952593
 21
201.969255
  0
LINE
  8
CSLAYER1
  6
CONTINUOUS
 62
     6
 10
40.952593
 20
202.969255
 11
40.952593
 21
209.719255
  0
LINE
  8
CSLAYER1
  6
CONTINUOUS
 62
     6
 10
40.952593
 20
210.719255
 11
40.952593
 21
217.469255
  0
LINE
  8
CSLAYER1
  6
CONTINUOUS
 62
     6
 10
47.500000
 20
217.469255
 11
47.500000
 21
218.469255
  0
LINE
  8
CSLAYER1
  6
CONTINUOUS
 62
     6
 10
47.500000
 20
209.719255
 11
47.500000
 21
210.719255
  0
LINE
  8
CSLAYER1
  6
CONTINUOUS
 62
     6
 10
47.500000
 20
201.969255
 11
47.500000
 21
202.969255
  0
LINE
  8
CSLAYER1
  6
CONTINUOUS
 62
     6
 10
47.500000
 20
194.219255
 11
47.500000
 21
195.219255
  0
LINE
  8
CSLAYER1
  6
CONTINUOUS
 62
     6
 10
41.952593
 20
210.719255
 11
41.952593
 21
217.469255
  0
LINE
  8
CSLAYER1
  6
CONTINUOUS
 62
     6
 10
41.952593
 20
202.969255
 11
41.952593
 21
209.719255
  0
LINE
  8
CSLAYER1
  6
CONTINUOUS
 62
     6
 10
41.952593
 20
195.219255
 11
41.952593
 21
201.969255
  0
LINE
  8
CSLAYER1
  6
CONTINUOUS
 62
     6
 10
41.952593
 20
187.469255
 11
41.952593
 21
194.219255
  0
LINE
  8
CSLAYER1
  6
CONTINUOUS
 62
     6
 10
41.952593
 20
216.094255
 11
40.952593
 21
216.094255
  0
LINE
  8
CSLAYER1
  6
CONTINUOUS
 62
     6
 10
41.952593
 20
212.094255
 11
40.952593
 21
212.094255
  0
LINE
  8
CSLAYER1
  6
CONTINUOUS
 62
     6
 10
41.952593
 20
208.344255
 11
40.952593
 21
208.344255
  0
LINE
  8
CSLAYER1
  6
CONTINUOUS
 62
     6
 10
41.952593
 20
204.344255
 11
40.952593
 21
204.344255
  0
LINE
  8
CSLAYER1
  6
CONTINUOUS
 62
     6
 10
41.952593
 20
200.594255
 11
40.952593
 21
200.594255
  0
LINE
  8
CSLAYER1
  6
CONTINUOUS
 62
     6
 10
41.952593
 20
196.594255
 11
40.952593
 21
196.594255
  0
LINE
  8
CSLAYER1
  6
CONTINUOUS
 62
     6
 10
41.952593
 20
192.844255
 11
40.952593
 21
192.844255
  0
LINE
  8
CSLAYER1
  6
CONTINUOUS
 62
     6
 10
41.952593
 20
188.844255
 11
40.952593
 21
188.844255
  0
LINE
  8
CSLAYER1
  6
CONTINUOUS
 62
     6
 10
35.952593
 20
210.719255
 11
35.952593
 21
217.469255
  0
LINE
  8
CSLAYER1
  6
CONTINUOUS
 62
     6
 10
35.952593
 20
202.969255
 11
35.952593
 21
209.719255
  0
LINE
  8
CSLAYER1
  6
CONTINUOUS
 62
     6
 10
35.952593
 20
195.219255
 11
35.952593
 21
201.969255
  0
LINE
  8
CSLAYER1
  6
CONTINUOUS
 62
     6
 10
47.500000
 20
163.219255
 11
47.500000
 21
164.219255
  0
LINE
  8
CSLAYER1
  6
CONTINUOUS
 62
     6
 10
47.500000
 20
179.719255
 11
35.952593
 21
179.719255
  0
LINE
  8
CSLAYER1
  6
CONTINUOUS
 62
     6
 10
47.500000
 20
178.719255
 11
35.952593
 21
178.719255
  0
LINE
  8
CSLAYER1
  6
CONTINUOUS
 62
     6
 10
47.500000
 20
171.969255
 11
35.952593
 21
171.969255
  0
LINE
  8
CSLAYER1
  6
CONTINUOUS
 62
     6
 10
47.500000
 20
170.969255
 11
35.952593
 21
170.969255
  0
LINE
  8
CSLAYER1
  6
CONTINUOUS
 62
     6
 10
47.500000
 20
163.219255
 11
30.600000
 21
163.219255
  0
LINE
  8
CSLAYER1
  6
CONTINUOUS
 62
     6
 10
47.500000
 20
164.219255
 11
35.952593
 21
164.219255
  0
LINE
  8
CSLAYER1
  6
CONTINUOUS
 62
     6
 10
40.952593
 20
164.219255
 11
40.952593
 21
170.969255
  0
LINE
  8
CSLAYER1
  6
CONTINUOUS
 62
     6
 10
35.952593
 20
164.219255
 11
35.952593
 21
170.969255
  0
LINE
  8
CSLAYER1
  6
CONTINUOUS
 62
     6
 10
40.952593
 20
171.969255
 11
40.952593
 21
178.719255
  0
LINE
  8
CSLAYER1
  6
CONTINUOUS
 62
     6
 10
40.952593
 20
179.719255
 11
40.952593
 21
186.469255
  0
LINE
  8
CSLAYER1
  6
CONTINUOUS
 62
     6
 10
47.500000
 20
178.719255
 11
47.500000
 21
179.719255
  0
LINE
  8
CSLAYER1
  6
CONTINUOUS
 62
     6
 10
47.500000
 20
170.969255
 11
47.500000
 21
171.969255
  0
LINE
  8
CSLAYER1
  6
CONTINUOUS
 62
     6
 10
41.952593
 20
179.719255
 11
41.952593
 21
186.469255
  0
LINE
  8
CSLAYER1
  6
CONTINUOUS
 62
     6
 10
41.952593
 20
171.969255
 11
41.952593
 21
178.719255
  0
LINE
  8
CSLAYER1
  6
CONTINUOUS
 62
     6
 10
41.952593
 20
164.219255
 11
41.952593
 21
170.969255
  0
LINE
  8
CSLAYER1
  6
CONTINUOUS
 62
     6
 10
41.952593
 20
185.094255
 11
40.952593
 21
185.094255
  0
LINE
  8
CSLAYER1
  6
CONTINUOUS
 62
     6
 10
41.952593
 20
181.094255
 11
40.952593
 21
181.094255
  0
LINE
  8
CSLAYER1
  6
CONTINUOUS
 62
     6
 10
41.952593
 20
177.344255
 11
40.952593
 21
177.344255
  0
LINE
  8
CSLAYER1
  6
CONTINUOUS
 62
     6
 10
41.952593
 20
173.344255
 11
40.952593
 21
173.344255
  0
LINE
  8
CSLAYER1
  6
CONTINUOUS
 62
     6
 10
41.952593
 20
169.594255
 11
40.952593
 21
169.594255
  0
LINE
  8
CSLAYER1
  6
CONTINUOUS
 62
     6
 10
41.952593
 20
165.594255
 11
40.952593
 21
165.594255
  0
LINE
  8
CSLAYER1
  6
CONTINUOUS
 62
     6
 10
35.952593
 20
179.719255
 11
35.952593
 21
186.469255
  0
LINE
  8
CSLAYER1
  6
CONTINUOUS
 62
     6
 10
35.952593
 20
171.969255
 11
35.952593
 21
178.719255
  0
LINE
  8
CSLAYER1
  6
CONTINUOUS
 62
     6
 10
58.000000
 20
206.031755
 11
48.500000
 21
206.031755
  0
LINE
  8
CSLAYER1
  6
CONTINUOUS
 62
     6
 10
58.000000
 20
206.031755
 11
58.000000
 21
178.031755
  0
LINE
  8
CSLAYER1
  6
CONTINUOUS
 62
     6
 10
51.666667
 20
208.031755
 11
50.666667
 21
208.031755
  0
LINE
  8
CSLAYER1
  6
CONTINUOUS
 62
     6
 10
51.666667
 20
206.031755
 11
51.666667
 21
208.031755
  0
ARC
  8
CSLAYER1
  6
CONTINUOUS
 62
     6
 10
48.500000
 20
208.031755
 40
2.166667
 50
292.619865
 51
360.000000
  0
LINE
  8
CSLAYER1
  6
CONTINUOUS
 62
     6
 10
58.000000
 20
178.031755
 11
48.500000
 21
178.031755
  0
LINE
  8
CSLAYER1
  6
CONTINUOUS
 62
     6
 10
61.000000
 20
205.181755
 11
58.000000
 21
205.181755
  0
LINE
  8
CSLAYER1
  6
CONTINUOUS
 62
     6
 10
61.000000
 20
225.181755
 11
61.000000
 21
205.181755
  0
LINE
  8
CSLAYER1
  6
CONTINUOUS
 62
     6
 10
61.000000
 20
225.181755
 11
40.600000
 21
225.181755
  0
LINE
  8
CSLAYER1
  6
CONTINUOUS
 62
     6
 10
35.650510
 20
225.181755
 11
32.900745
 21
225.181755
  0
LINE
  8
CSLAYER1
  6
CONTINUOUS
 62
     6
 10
61.000000
 20
172.344255
 11
48.500000
 21
172.344255
  0
LINE
  8
CSLAYER1
  6
CONTINUOUS
 62
     6
 10
61.000000
 20
154.344255
 11
30.600000
 21
154.344255
  0
LINE
  8
CSLAYER1
  6
CONTINUOUS
 62
     6
 10
61.000000
 20
172.344255
 11
61.000000
 21
154.344255
  0
LINE
  8
CSLAYER1
  6
CONTINUOUS
 62
     6
 10
55.000000
 20
166.344255
 11
48.500000
 21
166.344255
  0
LINE
  8
CSLAYER1
  6
CONTINUOUS
 62
     6
 10
55.000000
 20
155.344255
 11
30.600000
 21
155.344255
  0
LINE
  8
CSLAYER1
  6
CONTINUOUS
 62
     6
 10
55.000000
 20
166.344255
 11
55.000000
 21
155.344255
  0
CIRCLE
  8
CSLAYER1
  6
CONTINUOUS
 62
     6
 10
38.100000
 20
222.681755
 40
2.500000
  0
LINE
  8
CSLAYER1
  6
CONTINUOUS
 62
     6
 10
32.936835
 20
225.052195
 11
35.196259
 21
224.635799
  0
LINE
  8
CSLAYER1
  6
CONTINUOUS
 62
     6
 10
35.196259
 20
220.727710
 11
30.600000
 21
220.106868
  0
LINE
  8
CSLAYER1
  6
CONTINUOUS
 62
     6
 10
48.500000
 20
176.344255
 11
58.000000
 21
176.344255
  0
LINE
  8
CSLAYER1
  6
CONTINUOUS
 62
     6
 10
59.000000
 20
173.544255
 11
59.000000
 21
172.344255
  0
LINE
  8
CSLAYER1
  6
CONTINUOUS
 62
     6
 10
58.000000
 20
176.344255
 11
58.000000
 21
173.544255
  0
LINE
  8
CSLAYER1
  6
CONTINUOUS
 62
     6
 10
59.000000
 20
173.544255
 11
54.999986
 21
173.544255
  0
LINE
  8
CSLAYER1
  6
CONTINUOUS
 62
     6
 10
54.999987
 20
173.544255
 11
54.999987
 21
172.344255
  0
LINE
  8
CSLAYER1
  6
CONTINUOUS
 62
     6
 10
133.751963
 20
214.306753
 11
133.751963
 21
223.056753
  0
LINE
  8
CSLAYER1
  6
CONTINUOUS
 62
     6
 10
136.001963
 20
214.306753
 11
136.001963
 21
223.056753
  0
ARC
  8
CSLAYER1
  6
CONTINUOUS
 62
     6
 10
134.876963
 20
223.056753
 40
1.125000
 50
0.000000
 51
180.000000
  0
ARC
  8
CSLAYER1
  6
CONTINUOUS
 62
     6
 10
134.876963
 20
214.306753
 40
1.125000
 50
-180.000000
 51
0.000000
  0
ARC
  8
CSLAYER1
  6
CONTINUOUS
 62
     6
 10
42.500000
 20
218.681755
 40
5.500000
 50
173.062876
 51
182.214252
  0
ARC
  8
CSLAYER1
  6
CONTINUOUS
 62
     6
 10
42.500000
 20
218.681755
 40
5.500000
 50
-2.214252
 51
112.887992
  0
LINE
  8
CSLAYER1
  6
CONTINUOUS
 62
     6
 10
189.500000
 20
124.844255
 11
83.500000
 21
124.844255
  0
LINE
  8
CSLAYER1
  6
CONTINUOUS
 62
     6
 10
80.500000
 20
121.844255
 11
80.500000
 21
79.844255
  0
LINE
  8
CSLAYER1
  6
CONTINUOUS
 62
     6
 10
80.500000
 20
79.844255
 11
192.500000
 21
79.844255
  0
LINE
  8
CSLAYER1
  6
CONTINUOUS
 62
     6
 10
192.500000
 20
79.844255
 11
192.500000
 21
121.844255
  0
LINE
  8
CSLAYER1
  6
CENTER
 62
     3
 10
188.500000
 20
81.094255
 11
188.500000
 21
90.594255
  0
LINE
  8
CSLAYER1
  6
CENTER
 62
     3
 10
84.500000
 20
81.094255
 11
84.500000
 21
90.594255
  0
LINE
  8
CSLAYER1
  6
CENTER
 62
     3
 10
193.250000
 20
120.844255
 11
183.750000
 21
120.844255
  0
LINE
  8
CSLAYER1
  6
CENTER
 62
     3
 10
193.250000
 20
85.844255
 11
183.750000
 21
85.844255
  0
CIRCLE
  8
CSLAYER1
  6
CONTINUOUS
 62
     6
 10
188.500000
 20
120.844255
 40
1.750000
  0
CIRCLE
  8
CSLAYER1
  6
CONTINUOUS
 62
     6
 10
84.500000
 20
120.844255
 40
1.750000
  0
CIRCLE
  8
CSLAYER1
  6
CONTINUOUS
 62
     6
 10
84.500000
 20
85.844255
 40
1.750000
  0
CIRCLE
  8
CSLAYER1
  6
CONTINUOUS
 62
     6
 10
188.500000
 20
85.844255
 40
1.750000
  0
LINE
  8
CSLAYER1
  6
CENTER
 62
     3
 10
89.250000
 20
120.844255
 11
79.750000
 21
120.844255
  0
LINE
  8
CSLAYER1
  6
CENTER
 62
     3
 10
89.250000
 20
85.844255
 11
79.750000
 21
85.844255
  0
LINE
  8
CSLAYER1
  6
CENTER
 62
     3
 10
188.500000
 20
116.094255
 11
188.500000
 21
125.594255
  0
LINE
  8
CSLAYER1
  6
CENTER
 62
     3
 10
84.500000
 20
116.094255
 11
84.500000
 21
125.594255
  0
LINE
  8
CSLAYER1
  6
DASHED
 62
     6
 10
80.500000
 20
81.444255
 11
192.500000
 21
81.444255
  0
ARC
  8
CSLAYER1
  6
CONTINUOUS
 62
     6
 10
189.500000
 20
121.844255
 40
3.000000
 50
0.000000
 51
90.000000
  0
ARC
  8
CSLAYER1
  6
CONTINUOUS
 62
     6
 10
83.500000
 20
121.844255
 40
3.000000
 50
90.000000
 51
180.000000
  0
LINE
  8
CSLAYER1
  6
CENTER
 62
     3
 10
165.500000
 20
119.733131
 11
165.500000
 21
109.955377
  0
LINE
  8
CSLAYER1
  6
CENTER
 62
     3
 10
115.500000
 20
119.733131
 11
115.500000
 21
109.955377
  0
LINE
  8
CSLAYER1
  6
CONTINUOUS
 62
     6
 10
65.500000
 20
149.844255
 11
21.500000
 21
149.844255
  0
LINE
  8
CSLAYER1
  6
CONTINUOUS
 62
     6
 10
65.500000
 20
151.444255
 11
22.100000
 21
151.444255
  0
LINE
  8
CSLAYER1
  6
CONTINUOUS
 62
     6
 10
20.500000
 20
150.844255
 11
20.500000
 21
231.844255
  0
LINE
  8
CSLAYER1
  6
CONTINUOUS
 62
     6
 10
22.100000
 20
151.444255
 11
22.100000
 21
231.844255
  0
LINE
  8
CSLAYER1
  6
CONTINUOUS
 62
     6
 10
20.500000
 20
231.844255
 11
22.100000
 21
231.844255
  0
LINE
  8
CSLAYER1
  6
CONTINUOUS
 62
     6
 10
65.500000
 20
149.844255
 11
65.500000
 21
151.444255
  0
ARC
  8
CSLAYER1
  6
CONTINUOUS
 62
     6
 10
21.500000
 20
150.844255
 40
1.000000
 50
180.000000
 51
270.000000
  0
LINE
  8
CSLAYER1
  6
CENTER
 62
     3
 10
184.250000
 20
165.844255
 11
192.750000
 21
165.844255
  0
ARC
  8
CSLAYER1
  6
CONTINUOUS
 62
     6
 10
188.500000
 20
165.844255
 40
1.750000
 50
-148.997319
 51
148.997319
  0
LINE
  8
CSLAYER1
  6
CENTER
 62
     3
 10
188.500000
 20
161.594255
 11
188.500000
 21
170.094255
  0
LINE
  8
CSLAYER1
  6
CONTINUOUS
 62
     6
 10
28.854380
 20
226.519681
 11
29.100000
 21
226.094255
  0
LINE
  8
CSLAYER1
  6
CONTINUOUS
 62
     6
 10
29.100000
 20
226.094255
 11
29.100000
 21
220.594255
  0
LINE
  8
CSLAYER1
  6
CONTINUOUS
 62
     6
 10
29.100000
 20
220.594255
 11
28.854380
 21
220.168828
  0
ARC
  8
CSLAYER1
  6
CONTINUOUS
 62
     6
 10
27.694297
 20
225.725824
 40
1.405703
 50
-34.384247
 51
34.384247
  0
ARC
  8
CSLAYER1
  6
CONTINUOUS
 62
     6
 10
23.845620
 20
223.344255
 40
5.254380
 50
-17.587954
 51
17.587954
  0
ARC
  8
CSLAYER1
  6
CONTINUOUS
 62
     6
 10
27.694297
 20
220.962685
 40
1.405703
 50
-34.384247
 51
34.384247
  0
LINE
  8
CSLAYER1
  6
CONTINUOUS
 62
     6
 10
28.854380
 20
220.168828
 11
22.345620
 21
220.168828
  0
LINE
  8
CSLAYER1
  6
CONTINUOUS
 62
     6
 10
22.345620
 20
220.168828
 11
22.100000
 21
220.594255
  0
LINE
  8
CSLAYER1
  6
CONTINUOUS
 62
     6
 10
22.100000
 20
220.594255
 11
22.100000
 21
226.094255
  0
LINE
  8
CSLAYER1
  6
CONTINUOUS
 62
     6
 10
22.100000
 20
226.094255
 11
22.345620
 21
226.519681
  0
LINE
  8
CSLAYER1
  6
CONTINUOUS
 62
     6
 10
22.345620
 20
226.519681
 11
28.854380
 21
226.519681
  0
ARC
  8
CSLAYER1
  6
CONTINUOUS
 62
     6
 10
23.505703
 20
225.725824
 40
1.405703
 50
145.615753
 51
214.384247
  0
ARC
  8
CSLAYER1
  6
CONTINUOUS
 62
     6
 10
27.354380
 20
223.344255
 40
5.254380
 50
162.412046
 51
197.587954
  0
ARC
  8
CSLAYER1
  6
CONTINUOUS
 62
     6
 10
23.505703
 20
220.962685
 40
1.405703
 50
145.615753
 51
214.384247
  0
LINE
  8
CSLAYER1
  6
CONTINUOUS
 62
     6
 10
28.854380
 20
224.931968
 11
22.345620
 21
224.931968
  0
LINE
  8
CSLAYER1
  6
CONTINUOUS
 62
     6
 10
28.854380
 20
221.756541
 11
22.345620
 21
221.756541
  0
LINE
  8
CSLAYER1
  6
CONTINUOUS
 62
     6
 10
28.854380
 20
161.519681
 11
29.100000
 21
161.094255
  0
LINE
  8
CSLAYER1
  6
CONTINUOUS
 62
     6
 10
29.100000
 20
161.094255
 11
29.100000
 21
155.594255
  0
LINE
  8
CSLAYER1
  6
CONTINUOUS
 62
     6
 10
29.100000
 20
155.594255
 11
28.854380
 21
155.168828
  0
ARC
  8
CSLAYER1
  6
CONTINUOUS
 62
     6
 10
27.694297
 20
160.725824
 40
1.405703
 50
-34.384247
 51
34.384247
  0
ARC
  8
CSLAYER1
  6
CONTINUOUS
 62
     6
 10
23.845620
 20
158.344255
 40
5.254380
 50
-17.587954
 51
17.587954
  0
ARC
  8
CSLAYER1
  6
CONTINUOUS
 62
     6
 10
27.694297
 20
155.962685
 40
1.405703
 50
-34.384247
 51
34.384247
  0
LINE
  8
CSLAYER1
  6
CONTINUOUS
 62
     6
 10
28.854380
 20
155.168828
 11
22.345620
 21
155.168828
  0
LINE
  8
CSLAYER1
  6
CONTINUOUS
 62
     6
 10
22.345620
 20
155.168828
 11
22.100000
 21
155.594255
  0
LINE
  8
CSLAYER1
  6
CONTINUOUS
 62
     6
 10
22.100000
 20
155.594255
 11
22.100000
 21
161.094255
  0
LINE
  8
CSLAYER1
  6
CONTINUOUS
 62
     6
 10
22.100000
 20
161.094255
 11
22.345620
 21
161.519681
  0
LINE
  8
CSLAYER1
  6
CONTINUOUS
 62
     6
 10
22.345620
 20
161.519681
 11
28.854380
 21
161.519681
  0
ARC
  8
CSLAYER1
  6
CONTINUOUS
 62
     6
 10
23.505703
 20
160.725824
 40
1.405703
 50
145.615753
 51
214.384247
  0
ARC
  8
CSLAYER1
  6
CONTINUOUS
 62
     6
 10
27.354380
 20
158.344255
 40
5.254380
 50
162.412046
 51
197.587954
  0
ARC
  8
CSLAYER1
  6
CONTINUOUS
 62
     6
 10
23.505703
 20
155.962685
 40
1.405703
 50
145.615753
 51
214.384247
  0
LINE
  8
CSLAYER1
  6
CONTINUOUS
 62
     6
 10
28.854380
 20
159.931968
 11
22.345620
 21
159.931968
  0
LINE
  8
CSLAYER1
  6
CONTINUOUS
 62
     6
 10
28.854380
 20
156.756541
 11
22.345620
 21
156.756541
  0
TEXT
  8
CSLAYER1
 62
     3
 10
88.211777
 20
201.135406
 40
3.105882
 41
0.981818
  1
M+
 50
-90.000000
 51
0.000000
  7
FX_FONT
 72
     5
 11
88.211777
 21
196.053054
  0
LINE
  8
CSLAYER1
  6
CONTINUOUS
 62
     3
 10
87.999999
 20
201.594253
 11
87.999999
 21
195.594253
  0
LINE
  8
CSLAYER1
  6
CONTINUOUS
 62
     3
 10
91.529411
 20
201.594253
 11
91.529411
 21
195.594253
  0
LINE
  8
CSLAYER1
  6
CONTINUOUS
 62
     3
 10
91.529411
 20
201.594253
 11
87.999999
 21
201.594253
  0
LINE
  8
CSLAYER1
  6
CONTINUOUS
 62
     3
 10
91.529411
 20
195.594253
 11
87.999999
 21
195.594253
  0
TEXT
  8
CSLAYER1
 62
     3
 10
88.211777
 20
193.932922
 40
3.105882
 41
0.981818
  1
M-
 50
-90.000000
 51
0.000000
  7
FX_FONT
 72
     5
 11
88.211777
 21
188.850570
  0
LINE
  8
CSLAYER1
  6
CONTINUOUS
 62
     3
 10
87.999999
 20
194.391753
 11
87.999999
 21
188.391753
  0
LINE
  8
CSLAYER1
  6
CONTINUOUS
 62
     3
 10
91.529411
 20
194.391753
 11
91.529411
 21
188.391753
  0
LINE
  8
CSLAYER1
  6
CONTINUOUS
 62
     3
 10
91.529411
 20
194.391753
 11
87.999999
 21
194.391753
  0
LINE
  8
CSLAYER1
  6
CONTINUOUS
 62
     3
 10
91.529411
 20
188.391753
 11
87.999999
 21
188.391753
  0
TEXT
  8
CSLAYER1
 62
     3
 10
88.211777
 20
216.635422
 40
3.105882
 41
0.981818
  1
AC
 50
-90.000000
 51
0.000000
  7
FX_FONT
 72
     5
 11
88.211777
 21
211.553069
  0
LINE
  8
CSLAYER1
  6
CONTINUOUS
 62
     3
 10
87.999999
 20
217.094253
 11
87.999999
 21
211.094253
  0
LINE
  8
CSLAYER1
  6
CONTINUOUS
 62
     3
 10
91.529411
 20
217.094253
 11
91.529411
 21
211.094253
  0
LINE
  8
CSLAYER1
  6
CONTINUOUS
 62
     3
 10
91.529411
 20
217.094253
 11
87.999999
 21
217.094253
  0
LINE
  8
CSLAYER1
  6
CONTINUOUS
 62
     3
 10
91.529411
 20
211.094253
 11
87.999999
 21
211.094253
  0
TEXT
  8
CSLAYER1
 62
     3
 10
88.211777
 20
208.885422
 40
3.105882
 41
0.981818
  1
AC
 50
-90.000000
 51
0.000000
  7
FX_FONT
 72
     5
 11
88.211777
 21
203.803069
  0
LINE
  8
CSLAYER1
  6
CONTINUOUS
 62
     3
 10
87.999999
 20
209.344253
 11
87.999999
 21
203.344253
  0
LINE
  8
CSLAYER1
  6
CONTINUOUS
 62
     3
 10
91.529411
 20
209.344253
 11
91.529411
 21
203.344253
  0
LINE
  8
CSLAYER1
  6
CONTINUOUS
 62
     3
 10
91.529411
 20
209.344253
 11
87.999999
 21
209.344253
  0
LINE
  8
CSLAYER1
  6
CONTINUOUS
 62
     3
 10
91.529411
 20
203.344253
 11
87.999999
 21
203.344253
  0
TEXT
  8
CSLAYER1
 62
     3
 10
88.211777
 20
184.364868
 40
3.105882
 41
1.227273
  1
1
 50
-90.000000
 51
0.000000
  7
FX_FONT
 72
     5
 11
88.211777
 21
181.823692
  0
LINE
  8
CSLAYER1
  6
CONTINUOUS
 62
     3
 10
87.999999
 20
186.094253
 11
87.999999
 21
180.094253
  0
LINE
  8
CSLAYER1
  6
CONTINUOUS
 62
     3
 10
91.529411
 20
186.094253
 11
91.529411
 21
180.094253
  0
LINE
  8
CSLAYER1
  6
CONTINUOUS
 62
     3
 10
91.529411
 20
186.094253
 11
87.999999
 21
186.094253
  0
LINE
  8
CSLAYER1
  6
CONTINUOUS
 62
     3
 10
91.529411
 20
180.094253
 11
87.999999
 21
180.094253
  0
TEXT
  8
CSLAYER1
 62
     3
 10
88.211777
 20
176.614883
 40
3.105882
 41
1.227273
  1
2
 50
-90.000000
 51
0.000000
  7
FX_FONT
 72
     5
 11
88.211777
 21
174.073707
  0
LINE
  8
CSLAYER1
  6
CONTINUOUS
 62
     3
 10
87.999999
 20
178.344253
 11
87.999999
 21
172.344253
  0
LINE
  8
CSLAYER1
  6
CONTINUOUS
 62
     3
 10
91.529411
 20
178.344253
 11
91.529411
 21
172.344253
  0
LINE
  8
CSLAYER1
  6
CONTINUOUS
 62
     3
 10
91.529411
 20
178.344253
 11
87.999999
 21
178.344253
  0
LINE
  8
CSLAYER1
  6
CONTINUOUS
 62
     3
 10
91.529411
 20
172.344253
 11
87.999999
 21
172.344253
  0
TEXT
  8
CSLAYER1
 62
     3
 10
88.211777
 20
168.864868
 40
3.105882
 41
1.227273
  1
3
 50
-90.000000
 51
0.000000
  7
FX_FONT
 72
     5
 11
88.211777
 21
166.323692
  0
LINE
  8
CSLAYER1
  6
CONTINUOUS
 62
     3
 10
87.999999
 20
170.594253
 11
87.999999
 21
164.594253
  0
LINE
  8
CSLAYER1
  6
CONTINUOUS
 62
     3
 10
91.529411
 20
170.594253
 11
91.529411
 21
164.594253
  0
LINE
  8
CSLAYER1
  6
CONTINUOUS
 62
     3
 10
91.529411
 20
170.594253
 11
87.999999
 21
170.594253
  0
LINE
  8
CSLAYER1
  6
CONTINUOUS
 62
     3
 10
91.529411
 20
164.594253
 11
87.999999
 21
164.594253
  0
LINE
  8
CSLAYER1
  6
CONTINUOUS
 62
     6
 10
31.263771
 20
160.999406
 11
31.263771
 21
155.689074
  0
ARC
  8
CSLAYER1
  6
CONTINUOUS
 62
     6
 10
26.522382
 20
158.344240
 40
6.637945
 50
-16.257006
 51
16.257016
  0
LINE
  8
CSLAYER1
  6
CONTINUOUS
 62
     6
 10
31.469992
 20
155.754520
 11
32.067238
 21
155.806769
  0
ARC
  8
CSLAYER1
  6
CONTINUOUS
 62
     6
 10
31.984587
 20
156.751444
 40
0.948278
 50
275.000111
 51
343.742611
  0
ARC
  8
CSLAYER1
  6
CONTINUOUS
 62
     6
 10
31.453438
 20
155.943449
 40
0.189656
 50
180.000000
 51
275.000152
  0
LINE
  8
CSLAYER1
  6
CONTINUOUS
 62
     6
 10
31.168967
 20
155.594240
 11
30.694828
 21
155.594240
  0
ARC
  8
CSLAYER1
  6
CONTINUOUS
 62
     6
 10
31.168967
 20
155.689074
 40
0.094828
 50
-89.999997
 51
0.000005
  0
ARC
  8
CSLAYER1
  6
CONTINUOUS
 62
     6
 10
30.694828
 20
155.689074
 40
0.094828
 50
180.000000
 51
270.000003
  0
LINE
  8
CSLAYER1
  6
CONTINUOUS
 62
     6
 10
31.469992
 20
160.933961
 11
32.067238
 21
160.881711
  0
ARC
  8
CSLAYER1
  6
CONTINUOUS
 62
     6
 10
31.984587
 20
159.937036
 40
0.948278
 50
16.257399
 51
84.999892
  0
ARC
  8
CSLAYER1
  6
CONTINUOUS
 62
     6
 10
31.453438
 20
160.745031
 40
0.189656
 50
84.999865
 51
179.942691
  0
ARC
  8
CSLAYER1
  6
CONTINUOUS
 62
     6
 10
31.168967
 20
160.999406
 40
0.094828
 50
0.000005
 51
90.000001
  0
LINE
  8
CSLAYER1
  6
CONTINUOUS
 62
     6
 10
31.168967
 20
161.094240
 11
30.694828
 21
161.094240
  0
ARC
  8
CSLAYER1
  6
CONTINUOUS
 62
     6
 10
30.694828
 20
160.999406
 40
0.094828
 50
90.000001
 51
179.942691
  0
LINE
  8
CSLAYER1
  6
CONTINUOUS
 62
     6
 10
31.263771
 20
158.909349
 11
30.599994
 21
158.488444
  0
LINE
  8
CSLAYER1
  6
CONTINUOUS
 62
     6
 10
31.263771
 20
158.435210
 11
30.599994
 21
158.014305
  0
LINE
  8
CSLAYER1
  6
CONTINUOUS
 62
     6
 10
31.263771
 20
225.999406
 11
31.263771
 21
220.689074
  0
ARC
  8
CSLAYER1
  6
CONTINUOUS
 62
     6
 10
26.522382
 20
223.344240
 40
6.637945
 50
-16.257006
 51
16.257016
  0
LINE
  8
CSLAYER1
  6
CONTINUOUS
 62
     6
 10
31.469992
 20
220.754520
 11
32.067238
 21
220.806769
  0
ARC
  8
CSLAYER1
  6
CONTINUOUS
 62
     6
 10
31.984587
 20
221.751444
 40
0.948278
 50
275.000111
 51
343.742611
  0
ARC
  8
CSLAYER1
  6
CONTINUOUS
 62
     6
 10
31.453438
 20
220.943449
 40
0.189656
 50
180.000000
 51
275.000152
  0
LINE
  8
CSLAYER1
  6
CONTINUOUS
 62
     6
 10
31.168967
 20
220.594240
 11
30.694828
 21
220.594240
  0
ARC
  8
CSLAYER1
  6
CONTINUOUS
 62
     6
 10
31.168967
 20
220.689074
 40
0.094828
 50
-89.999997
 51
0.000005
  0
ARC
  8
CSLAYER1
  6
CONTINUOUS
 62
     6
 10
30.694828
 20
220.689074
 40
0.094828
 50
180.000000
 51
270.000003
  0
LINE
  8
CSLAYER1
  6
CONTINUOUS
 62
     6
 10
31.469992
 20
225.933961
 11
32.067238
 21
225.881711
  0
ARC
  8
CSLAYER1
  6
CONTINUOUS
 62
     6
 10
31.984587
 20
224.937036
 40
0.948278
 50
16.257399
 51
84.999892
  0
ARC
  8
CSLAYER1
  6
CONTINUOUS
 62
     6
 10
31.453438
 20
225.745031
 40
0.189656
 50
84.999865
 51
179.942691
  0
ARC
  8
CSLAYER1
  6
CONTINUOUS
 62
     6
 10
31.168967
 20
225.999406
 40
0.094828
 50
0.000005
 51
90.000001
  0
LINE
  8
CSLAYER1
  6
CONTINUOUS
 62
     6
 10
31.168967
 20
226.094240
 11
30.694828
 21
226.094240
  0
ARC
  8
CSLAYER1
  6
CONTINUOUS
 62
     6
 10
30.694828
 20
225.999406
 40
0.094828
 50
90.000001
 51
179.942691
  0
LINE
  8
CSLAYER1
  6
CONTINUOUS
 62
     6
 10
31.263771
 20
223.909349
 11
30.599994
 21
223.488444
  0
LINE
  8
CSLAYER1
  6
CONTINUOUS
 62
     6
 10
31.263771
 20
223.435210
 11
30.599994
 21
223.014305
  0
CIRCLE
  8
CSLAYER1
  6
CONTINUOUS
 62
     6
 10
98.879416
 20
214.094262
 40
2.250000
  0
ARC
  8
CSLAYER1
  6
CONTINUOUS
 62
     6
 10
98.879408
 20
214.094262
 40
1.250000
 50
163.398416
 51
196.601577
  0
ARC
  8
CSLAYER1
  6
CONTINUOUS
 62
     6
 10
98.879408
 20
214.094262
 40
1.250000
 50
253.398422
 51
286.601583
  0
ARC
  8
CSLAYER1
  6
CONTINUOUS
 62
     6
 10
98.879408
 20
214.094262
 40
1.250000
 50
-16.601562
 51
16.601572
  0
ARC
  8
CSLAYER1
  6
CONTINUOUS
 62
     6
 10
98.879408
 20
214.094262
 40
1.250000
 50
73.398406
 51
106.601595
  0
LINE
  8
CSLAYER1
  6
CONTINUOUS
 62
     6
 10
99.593702
 20
213.737115
 11
100.077296
 21
213.737115
  0
LINE
  8
CSLAYER1
  6
CONTINUOUS
 62
     6
 10
98.165113
 20
213.737115
 11
97.681520
 21
213.737115
  0
LINE
  8
CSLAYER1
  6
CONTINUOUS
 62
     6
 10
99.593702
 20
214.451410
 11
100.077296
 21
214.451410
  0
LINE
  8
CSLAYER1
  6
CONTINUOUS
 62
     6
 10
98.165113
 20
214.451410
 11
97.681520
 21
214.451410
  0
LINE
  8
CSLAYER1
  6
CONTINUOUS
 62
     6
 10
98.522260
 20
213.379987
 11
98.522260
 21
212.896356
  0
LINE
  8
CSLAYER1
  6
CONTINUOUS
 62
     6
 10
98.522260
 20
214.808538
 11
98.522260
 21
215.292169
  0
LINE
  8
CSLAYER1
  6
CONTINUOUS
 62
     6
 10
99.236555
 20
213.379987
 11
99.236555
 21
212.896356
  0
LINE
  8
CSLAYER1
  6
CONTINUOUS
 62
     6
 10
99.236555
 20
214.808538
 11
99.236555
 21
215.292169
  0
ARC
  8
CSLAYER1
  6
CONTINUOUS
 62
     6
 10
99.593702
 20
213.379987
 40
0.357143
 50
90.000001
 51
179.942691
  0
ARC
  8
CSLAYER1
  6
CONTINUOUS
 62
     6
 10
99.593702
 20
214.808538
 40
0.357143
 50
180.000010
 51
270.000016
  0
ARC
  8
CSLAYER1
  6
CONTINUOUS
 62
     6
 10
98.165113
 20
214.808538
 40
0.357143
 50
-89.999984
 51
0.000005
  0
ARC
  8
CSLAYER1
  6
CONTINUOUS
 62
     6
 10
98.165113
 20
213.379987
 40
0.357143
 50
0.000005
 51
89.942654
  0
CIRCLE
  8
CSLAYER1
  6
CONTINUOUS
 62
     6
 10
98.879416
 20
206.344262
 40
2.250000
  0
ARC
  8
CSLAYER1
  6
CONTINUOUS
 62
     6
 10
98.879408
 20
206.344262
 40
1.250000
 50
163.398416
 51
196.601577
  0
ARC
  8
CSLAYER1
  6
CONTINUOUS
 62
     6
 10
98.879408
 20
206.344262
 40
1.250000
 50
253.398422
 51
286.601583
  0
ARC
  8
CSLAYER1
  6
CONTINUOUS
 62
     6
 10
98.879408
 20
206.344262
 40
1.250000
 50
-16.601562
 51
16.601572
  0
ARC
  8
CSLAYER1
  6
CONTINUOUS
 62
     6
 10
98.879408
 20
206.344262
 40
1.250000
 50
73.398406
 51
106.601595
  0
LINE
  8
CSLAYER1
  6
CONTINUOUS
 62
     6
 10
99.593702
 20
205.987115
 11
100.077296
 21
205.987115
  0
LINE
  8
CSLAYER1
  6
CONTINUOUS
 62
     6
 10
98.165113
 20
205.987115
 11
97.681520
 21
205.987115
  0
LINE
  8
CSLAYER1
  6
CONTINUOUS
 62
     6
 10
99.593702
 20
206.701410
 11
100.077296
 21
206.701410
  0
LINE
  8
CSLAYER1
  6
CONTINUOUS
 62
     6
 10
98.165113
 20
206.701410
 11
97.681520
 21
206.701410
  0
LINE
  8
CSLAYER1
  6
CONTINUOUS
 62
     6
 10
98.522260
 20
205.629987
 11
98.522260
 21
205.146356
  0
LINE
  8
CSLAYER1
  6
CONTINUOUS
 62
     6
 10
98.522260
 20
207.058538
 11
98.522260
 21
207.542169
  0
LINE
  8
CSLAYER1
  6
CONTINUOUS
 62
     6
 10
99.236555
 20
205.629987
 11
99.236555
 21
205.146356
  0
LINE
  8
CSLAYER1
  6
CONTINUOUS
 62
     6
 10
99.236555
 20
207.058538
 11
99.236555
 21
207.542169
  0
ARC
  8
CSLAYER1
  6
CONTINUOUS
 62
     6
 10
99.593702
 20
205.629987
 40
0.357143
 50
90.000001
 51
179.942691
  0
ARC
  8
CSLAYER1
  6
CONTINUOUS
 62
     6
 10
99.593702
 20
207.058538
 40
0.357143
 50
180.000010
 51
270.000016
  0
ARC
  8
CSLAYER1
  6
CONTINUOUS
 62
     6
 10
98.165113
 20
207.058538
 40
0.357143
 50
-89.999984
 51
0.000005
  0
ARC
  8
CSLAYER1
  6
CONTINUOUS
 62
     6
 10
98.165113
 20
205.629987
 40
0.357143
 50
0.000005
 51
89.942654
  0
CIRCLE
  8
CSLAYER1
  6
CONTINUOUS
 62
     6
 10
98.879416
 20
198.594262
 40
2.250000
  0
ARC
  8
CSLAYER1
  6
CONTINUOUS
 62
     6
 10
98.879408
 20
198.594262
 40
1.250000
 50
163.398416
 51
196.601577
  0
ARC
  8
CSLAYER1
  6
CONTINUOUS
 62
     6
 10
98.879408
 20
198.594262
 40
1.250000
 50
253.398422
 51
286.601583
  0
ARC
  8
CSLAYER1
  6
CONTINUOUS
 62
     6
 10
98.879408
 20
198.594262
 40
1.250000
 50
-16.601562
 51
16.601572
  0
ARC
  8
CSLAYER1
  6
CONTINUOUS
 62
     6
 10
98.879408
 20
198.594262
 40
1.250000
 50
73.398406
 51
106.601595
  0
LINE
  8
CSLAYER1
  6
CONTINUOUS
 62
     6
 10
99.593702
 20
198.237115
 11
100.077296
 21
198.237115
  0
LINE
  8
CSLAYER1
  6
CONTINUOUS
 62
     6
 10
98.165113
 20
198.237115
 11
97.681520
 21
198.237115
  0
LINE
  8
CSLAYER1
  6
CONTINUOUS
 62
     6
 10
99.593702
 20
198.951410
 11
100.077296
 21
198.951410
  0
LINE
  8
CSLAYER1
  6
CONTINUOUS
 62
     6
 10
98.165113
 20
198.951410
 11
97.681520
 21
198.951410
  0
LINE
  8
CSLAYER1
  6
CONTINUOUS
 62
     6
 10
98.522260
 20
197.879987
 11
98.522260
 21
197.396356
  0
LINE
  8
CSLAYER1
  6
CONTINUOUS
 62
     6
 10
98.522260
 20
199.308538
 11
98.522260
 21
199.792169
  0
LINE
  8
CSLAYER1
  6
CONTINUOUS
 62
     6
 10
99.236555
 20
197.879987
 11
99.236555
 21
197.396356
  0
LINE
  8
CSLAYER1
  6
CONTINUOUS
 62
     6
 10
99.236555
 20
199.308538
 11
99.236555
 21
199.792169
  0
ARC
  8
CSLAYER1
  6
CONTINUOUS
 62
     6
 10
99.593702
 20
197.879987
 40
0.357143
 50
90.000001
 51
179.942691
  0
ARC
  8
CSLAYER1
  6
CONTINUOUS
 62
     6
 10
99.593702
 20
199.308538
 40
0.357143
 50
180.000010
 51
270.000016
  0
ARC
  8
CSLAYER1
  6
CONTINUOUS
 62
     6
 10
98.165113
 20
199.308538
 40
0.357143
 50
-89.999984
 51
0.000005
  0
ARC
  8
CSLAYER1
  6
CONTINUOUS
 62
     6
 10
98.165113
 20
197.879987
 40
0.357143
 50
0.000005
 51
89.942654
  0
CIRCLE
  8
CSLAYER1
  6
CONTINUOUS
 62
     6
 10
98.879416
 20
190.844262
 40
2.250000
  0
ARC
  8
CSLAYER1
  6
CONTINUOUS
 62
     6
 10
98.879408
 20
190.844262
 40
1.250000
 50
163.398416
 51
196.601577
  0
ARC
  8
CSLAYER1
  6
CONTINUOUS
 62
     6
 10
98.879408
 20
190.844262
 40
1.250000
 50
253.398422
 51
286.601583
  0
ARC
  8
CSLAYER1
  6
CONTINUOUS
 62
     6
 10
98.879408
 20
190.844262
 40
1.250000
 50
-16.601562
 51
16.601572
  0
ARC
  8
CSLAYER1
  6
CONTINUOUS
 62
     6
 10
98.879408
 20
190.844262
 40
1.250000
 50
73.398406
 51
106.601595
  0
LINE
  8
CSLAYER1
  6
CONTINUOUS
 62
     6
 10
99.593702
 20
190.487115
 11
100.077296
 21
190.487115
  0
LINE
  8
CSLAYER1
  6
CONTINUOUS
 62
     6
 10
98.165113
 20
190.487115
 11
97.681520
 21
190.487115
  0
LINE
  8
CSLAYER1
  6
CONTINUOUS
 62
     6
 10
99.593702
 20
191.201410
 11
100.077296
 21
191.201410
  0
LINE
  8
CSLAYER1
  6
CONTINUOUS
 62
     6
 10
98.165113
 20
191.201410
 11
97.681520
 21
191.201410
  0
LINE
  8
CSLAYER1
  6
CONTINUOUS
 62
     6
 10
98.522260
 20
190.129987
 11
98.522260
 21
189.646356
  0
LINE
  8
CSLAYER1
  6
CONTINUOUS
 62
     6
 10
98.522260
 20
191.558538
 11
98.522260
 21
192.042169
  0
LINE
  8
CSLAYER1
  6
CONTINUOUS
 62
     6
 10
99.236555
 20
190.129987
 11
99.236555
 21
189.646356
  0
LINE
  8
CSLAYER1
  6
CONTINUOUS
 62
     6
 10
99.236555
 20
191.558538
 11
99.236555
 21
192.042169
  0
ARC
  8
CSLAYER1
  6
CONTINUOUS
 62
     6
 10
99.593702
 20
190.129987
 40
0.357143
 50
90.000001
 51
179.942691
  0
ARC
  8
CSLAYER1
  6
CONTINUOUS
 62
     6
 10
99.593702
 20
191.558538
 40
0.357143
 50
180.000010
 51
270.000016
  0
ARC
  8
CSLAYER1
  6
CONTINUOUS
 62
     6
 10
98.165113
 20
191.558538
 40
0.357143
 50
-89.999984
 51
0.000005
  0
ARC
  8
CSLAYER1
  6
CONTINUOUS
 62
     6
 10
98.165113
 20
190.129987
 40
0.357143
 50
0.000005
 51
89.942654
  0
CIRCLE
  8
CSLAYER1
  6
CONTINUOUS
 62
     6
 10
98.879416
 20
167.594245
 40
2.250000
  0
ARC
  8
CSLAYER1
  6
CONTINUOUS
 62
     6
 10
98.879408
 20
167.594244
 40
1.250000
 50
163.398423
 51
196.601584
  0
ARC
  8
CSLAYER1
  6
CONTINUOUS
 62
     6
 10
98.879408
 20
167.594244
 40
1.250000
 50
73.398417
 51
106.601578
  0
ARC
  8
CSLAYER1
  6
CONTINUOUS
 62
     6
 10
98.879408
 20
167.594244
 40
1.250000
 50
-16.601572
 51
16.601562
  0
ARC
  8
CSLAYER1
  6
CONTINUOUS
 62
     6
 10
98.879408
 20
167.594244
 40
1.250000
 50
253.398405
 51
286.601594
  0
LINE
  8
CSLAYER1
  6
CONTINUOUS
 62
     6
 10
99.593702
 20
167.951392
 11
100.077296
 21
167.951392
  0
LINE
  8
CSLAYER1
  6
CONTINUOUS
 62
     6
 10
98.165113
 20
167.951392
 11
97.681520
 21
167.951392
  0
LINE
  8
CSLAYER1
  6
CONTINUOUS
 62
     6
 10
99.593702
 20
167.237097
 11
100.077296
 21
167.237097
  0
LINE
  8
CSLAYER1
  6
CONTINUOUS
 62
     6
 10
98.165113
 20
167.237097
 11
97.681520
 21
167.237097
  0
LINE
  8
CSLAYER1
  6
CONTINUOUS
 62
     6
 10
98.522260
 20
168.308520
 11
98.522260
 21
168.792151
  0
LINE
  8
CSLAYER1
  6
CONTINUOUS
 62
     6
 10
98.522260
 20
166.879969
 11
98.522260
 21
166.396338
  0
LINE
  8
CSLAYER1
  6
CONTINUOUS
 62
     6
 10
99.236555
 20
168.308520
 11
99.236555
 21
168.792151
  0
LINE
  8
CSLAYER1
  6
CONTINUOUS
 62
     6
 10
99.236555
 20
166.879969
 11
99.236555
 21
166.396338
  0
ARC
  8
CSLAYER1
  6
CONTINUOUS
 62
     6
 10
99.593702
 20
168.308520
 40
0.357143
 50
180.057309
 51
269.999999
  0
ARC
  8
CSLAYER1
  6
CONTINUOUS
 62
     6
 10
99.593702
 20
166.879969
 40
0.357143
 50
89.999984
 51
179.999990
  0
ARC
  8
CSLAYER1
  6
CONTINUOUS
 62
     6
 10
98.165113
 20
166.879969
 40
0.357143
 50
-0.000005
 51
89.999984
  0
ARC
  8
CSLAYER1
  6
CONTINUOUS
 62
     6
 10
98.165113
 20
168.308520
 40
0.357143
 50
270.057346
 51
359.999995
  0
CIRCLE
  8
CSLAYER1
  6
CONTINUOUS
 62
     6
 10
98.879416
 20
175.344245
 40
2.250000
  0
ARC
  8
CSLAYER1
  6
CONTINUOUS
 62
     6
 10
98.879408
 20
175.344244
 40
1.250000
 50
163.398423
 51
196.601584
  0
ARC
  8
CSLAYER1
  6
CONTINUOUS
 62
     6
 10
98.879408
 20
175.344244
 40
1.250000
 50
73.398417
 51
106.601578
  0
ARC
  8
CSLAYER1
  6
CONTINUOUS
 62
     6
 10
98.879408
 20
175.344244
 40
1.250000
 50
-16.601572
 51
16.601562
  0
ARC
  8
CSLAYER1
  6
CONTINUOUS
 62
     6
 10
98.879408
 20
175.344244
 40
1.250000
 50
253.398405
 51
286.601594
  0
LINE
  8
CSLAYER1
  6
CONTINUOUS
 62
     6
 10
99.593702
 20
175.701392
 11
100.077296
 21
175.701392
  0
LINE
  8
CSLAYER1
  6
CONTINUOUS
 62
     6
 10
98.165113
 20
175.701392
 11
97.681520
 21
175.701392
  0
LINE
  8
CSLAYER1
  6
CONTINUOUS
 62
     6
 10
99.593702
 20
174.987097
 11
100.077296
 21
174.987097
  0
LINE
  8
CSLAYER1
  6
CONTINUOUS
 62
     6
 10
98.165113
 20
174.987097
 11
97.681520
 21
174.987097
  0
LINE
  8
CSLAYER1
  6
CONTINUOUS
 62
     6
 10
98.522260
 20
176.058520
 11
98.522260
 21
176.542151
  0
LINE
  8
CSLAYER1
  6
CONTINUOUS
 62
     6
 10
98.522260
 20
174.629969
 11
98.522260
 21
174.146338
  0
LINE
  8
CSLAYER1
  6
CONTINUOUS
 62
     6
 10
99.236555
 20
176.058520
 11
99.236555
 21
176.542151
  0
LINE
  8
CSLAYER1
  6
CONTINUOUS
 62
     6
 10
99.236555
 20
174.629969
 11
99.236555
 21
174.146338
  0
ARC
  8
CSLAYER1
  6
CONTINUOUS
 62
     6
 10
99.593702
 20
176.058520
 40
0.357143
 50
180.057309
 51
269.999999
  0
ARC
  8
CSLAYER1
  6
CONTINUOUS
 62
     6
 10
99.593702
 20
174.629969
 40
0.357143
 50
89.999984
 51
179.999990
  0
ARC
  8
CSLAYER1
  6
CONTINUOUS
 62
     6
 10
98.165113
 20
174.629969
 40
0.357143
 50
-0.000005
 51
89.999984
  0
ARC
  8
CSLAYER1
  6
CONTINUOUS
 62
     6
 10
98.165113
 20
176.058520
 40
0.357143
 50
270.057346
 51
359.999995
  0
CIRCLE
  8
CSLAYER1
  6
CONTINUOUS
 62
     6
 10
98.879416
 20
183.094245
 40
2.250000
  0
ARC
  8
CSLAYER1
  6
CONTINUOUS
 62
     6
 10
98.879408
 20
183.094244
 40
1.250000
 50
163.398423
 51
196.601584
  0
ARC
  8
CSLAYER1
  6
CONTINUOUS
 62
     6
 10
98.879408
 20
183.094244
 40
1.250000
 50
73.398417
 51
106.601578
  0
ARC
  8
CSLAYER1
  6
CONTINUOUS
 62
     6
 10
98.879408
 20
183.094244
 40
1.250000
 50
-16.601572
 51
16.601562
  0
ARC
  8
CSLAYER1
  6
CONTINUOUS
 62
     6
 10
98.879408
 20
183.094244
 40
1.250000
 50
253.398405
 51
286.601594
  0
LINE
  8
CSLAYER1
  6
CONTINUOUS
 62
     6
 10
99.593702
 20
183.451392
 11
100.077296
 21
183.451392
  0
LINE
  8
CSLAYER1
  6
CONTINUOUS
 62
     6
 10
98.165113
 20
183.451392
 11
97.681520
 21
183.451392
  0
LINE
  8
CSLAYER1
  6
CONTINUOUS
 62
     6
 10
99.593702
 20
182.737097
 11
100.077296
 21
182.737097
  0
LINE
  8
CSLAYER1
  6
CONTINUOUS
 62
     6
 10
98.165113
 20
182.737097
 11
97.681520
 21
182.737097
  0
LINE
  8
CSLAYER1
  6
CONTINUOUS
 62
     6
 10
98.522260
 20
183.808520
 11
98.522260
 21
184.292151
  0
LINE
  8
CSLAYER1
  6
CONTINUOUS
 62
     6
 10
98.522260
 20
182.379969
 11
98.522260
 21
181.896338
  0
LINE
  8
CSLAYER1
  6
CONTINUOUS
 62
     6
 10
99.236555
 20
183.808520
 11
99.236555
 21
184.292151
  0
LINE
  8
CSLAYER1
  6
CONTINUOUS
 62
     6
 10
99.236555
 20
182.379969
 11
99.236555
 21
181.896338
  0
ARC
  8
CSLAYER1
  6
CONTINUOUS
 62
     6
 10
99.593702
 20
183.808520
 40
0.357143
 50
180.057309
 51
269.999999
  0
ARC
  8
CSLAYER1
  6
CONTINUOUS
 62
     6
 10
99.593702
 20
182.379969
 40
0.357143
 50
89.999984
 51
179.999990
  0
ARC
  8
CSLAYER1
  6
CONTINUOUS
 62
     6
 10
98.165113
 20
182.379969
 40
0.357143
 50
-0.000005
 51
89.999984
  0
ARC
  8
CSLAYER1
  6
CONTINUOUS
 62
     6
 10
98.165113
 20
183.808520
 40
0.357143
 50
270.057346
 51
359.999995
  0
ARC
  8
CSLAYER1
  6
CONTINUOUS
 62
     3
 10
188.500000
 20
215.844255
 40
1.750000
 50
156.769459
 51
165.557940
  0
ARC
  8
CSLAYER1
  6
CONTINUOUS
 62
     3
 10
188.500000
 20
215.844255
 40
1.750000
 50
194.442060
 51
203.230541
  0
ARC
  8
CSLAYER1
  6
CONTINUOUS
 62
     3
 10
188.500000
 20
215.844255
 40
1.750000
 50
175.093397
 51
184.906603
  0
LINE
  8
CSLAYER1
  6
CONTINUOUS
 62
     6
 10
164.880140
 20
176.947682
 11
169.707715
 21
176.947682
  0
ARC
  8
CSLAYER1
  6
CONTINUOUS
 62
     6
 10
167.293927
 20
172.637328
 40
6.034495
 50
73.742994
 51
106.257016
  0
LINE
  8
CSLAYER1
  6
CONTINUOUS
 62
     6
 10
169.648219
 20
177.135155
 11
169.600719
 21
177.678106
  0
ARC
  8
CSLAYER1
  6
CONTINUOUS
 62
     6
 10
168.741924
 20
177.602969
 40
0.862071
 50
5.000111
 51
73.742611
  0
ARC
  8
CSLAYER1
  6
CONTINUOUS
 62
     6
 10
169.476465
 20
177.120107
 40
0.172414
 50
-90.000000
 51
5.000152
  0
LINE
  8
CSLAYER1
  6
CONTINUOUS
 62
     6
 10
169.793927
 20
176.861496
 11
169.793927
 21
176.430460
  0
ARC
  8
CSLAYER1
  6
CONTINUOUS
 62
     6
 10
169.707715
 20
176.861496
 40
0.086207
 50
0.000003
 51
90.000005
  0
ARC
  8
CSLAYER1
  6
CONTINUOUS
 62
     6
 10
169.707715
 20
176.430460
 40
0.086207
 50
-90.000000
 51
0.000003
  0
LINE
  8
CSLAYER1
  6
CONTINUOUS
 62
     6
 10
164.939636
 20
177.135155
 11
164.987136
 21
177.678106
  0
ARC
  8
CSLAYER1
  6
CONTINUOUS
 62
     6
 10
165.845931
 20
177.602969
 40
0.862071
 50
106.257399
 51
174.999892
  0
ARC
  8
CSLAYER1
  6
CONTINUOUS
 62
     6
 10
165.111390
 20
177.120107
 40
0.172414
 50
174.999865
 51
269.942691
  0
ARC
  8
CSLAYER1
  6
CONTINUOUS
 62
     6
 10
164.880140
 20
176.861496
 40
0.086207
 50
90.000005
 51
180.000001
  0
LINE
  8
CSLAYER1
  6
CONTINUOUS
 62
     6
 10
164.793927
 20
176.861496
 11
164.793927
 21
176.430460
  0
ARC
  8
CSLAYER1
  6
CONTINUOUS
 62
     6
 10
164.880140
 20
176.430460
 40
0.086207
 50
180.000001
 51
269.942691
  0
LINE
  8
CSLAYER1
  6
CONTINUOUS
 62
     6
 10
166.780192
 20
176.947682
 11
167.162833
 21
176.344248
  0
LINE
  8
CSLAYER1
  6
CONTINUOUS
 62
     6
 10
167.211227
 20
176.947682
 11
167.593869
 21
176.344248
  0
LINE
  8
CSLAYER1
  6
CONTINUOUS
 62
     6
 10
42.995679
 20
216.266652
 11
42.995679
 21
211.921834
  0
ARC
  8
CSLAYER1
  6
CONTINUOUS
 62
     6
 10
39.116361
 20
214.094243
 40
5.431046
 50
-16.257006
 51
16.257016
  0
LINE
  8
CSLAYER1
  6
CONTINUOUS
 62
     6
 10
43.164405
 20
211.975380
 11
43.653061
 21
212.018130
  0
ARC
  8
CSLAYER1
  6
CONTINUOUS
 62
     6
 10
43.585438
 20
212.791046
 40
0.775864
 50
275.000111
 51
343.742611
  0
ARC
  8
CSLAYER1
  6
CONTINUOUS
 62
     6
 10
43.150861
 20
212.129959
 40
0.155173
 50
180.000000
 51
275.000152
  0
LINE
  8
CSLAYER1
  6
CONTINUOUS
 62
     6
 10
42.918112
 20
211.844243
 11
42.530180
 21
211.844243
  0
ARC
  8
CSLAYER1
  6
CONTINUOUS
 62
     6
 10
42.918112
 20
211.921834
 40
0.077586
 50
-89.999997
 51
0.000005
  0
ARC
  8
CSLAYER1
  6
CONTINUOUS
 62
     6
 10
42.530180
 20
211.921834
 40
0.077586
 50
180.000000
 51
270.000003
  0
LINE
  8
CSLAYER1
  6
CONTINUOUS
 62
     6
 10
43.164405
 20
216.213105
 11
43.653061
 21
216.170355
  0
ARC
  8
CSLAYER1
  6
CONTINUOUS
 62
     6
 10
43.585438
 20
215.397439
 40
0.775864
 50
16.257399
 51
84.999892
  0
ARC
  8
CSLAYER1
  6
CONTINUOUS
 62
     6
 10
43.150861
 20
216.058527
 40
0.155173
 50
84.999865
 51
179.942691
  0
ARC
  8
CSLAYER1
  6
CONTINUOUS
 62
     6
 10
42.918112
 20
216.266652
 40
0.077586
 50
0.000005
 51
90.000001
  0
LINE
  8
CSLAYER1
  6
CONTINUOUS
 62
     6
 10
42.918112
 20
216.344243
 11
42.530180
 21
216.344243
  0
ARC
  8
CSLAYER1
  6
CONTINUOUS
 62
     6
 10
42.530180
 20
216.266652
 40
0.077586
 50
90.000001
 51
179.942691
  0
LINE
  8
CSLAYER1
  6
CONTINUOUS
 62
     6
 10
42.995679
 20
214.556605
 11
42.452589
 21
214.212228
  0
LINE
  8
CSLAYER1
  6
CONTINUOUS
 62
     6
 10
42.995679
 20
214.168673
 11
42.452589
 21
213.824296
  0
LINE
  8
CSLAYER1
  6
CONTINUOUS
 62
     6
 10
42.452593
 20
211.594255
 11
42.452593
 21
216.594255
  0
LINE
  8
CSLAYER1
  6
CONTINUOUS
 62
     6
 10
42.452593
 20
216.594255
 11
41.952593
 21
216.594255
  0
LINE
  8
CSLAYER1
  6
CONTINUOUS
 62
     6
 10
42.452593
 20
211.594255
 11
41.952593
 21
211.594255
  0
LINE
  8
CSLAYER1
  6
CONTINUOUS
 62
     6
 10
42.995679
 20
208.516652
 11
42.995679
 21
204.171834
  0
ARC
  8
CSLAYER1
  6
CONTINUOUS
 62
     6
 10
39.116361
 20
206.344243
 40
5.431046
 50
-16.257006
 51
16.257016
  0
LINE
  8
CSLAYER1
  6
CONTINUOUS
 62
     6
 10
43.164405
 20
204.225380
 11
43.653061
 21
204.268130
  0
ARC
  8
CSLAYER1
  6
CONTINUOUS
 62
     6
 10
43.585438
 20
205.041046
 40
0.775864
 50
275.000111
 51
343.742611
  0
ARC
  8
CSLAYER1
  6
CONTINUOUS
 62
     6
 10
43.150861
 20
204.379959
 40
0.155173
 50
180.000000
 51
275.000152
  0
LINE
  8
CSLAYER1
  6
CONTINUOUS
 62
     6
 10
42.918112
 20
204.094243
 11
42.530180
 21
204.094243
  0
ARC
  8
CSLAYER1
  6
CONTINUOUS
 62
     6
 10
42.918112
 20
204.171834
 40
0.077586
 50
-89.999997
 51
0.000005
  0
ARC
  8
CSLAYER1
  6
CONTINUOUS
 62
     6
 10
42.530180
 20
204.171834
 40
0.077586
 50
180.000000
 51
270.000003
  0
LINE
  8
CSLAYER1
  6
CONTINUOUS
 62
     6
 10
43.164405
 20
208.463105
 11
43.653061
 21
208.420355
  0
ARC
  8
CSLAYER1
  6
CONTINUOUS
 62
     6
 10
43.585438
 20
207.647439
 40
0.775864
 50
16.257399
 51
84.999892
  0
ARC
  8
CSLAYER1
  6
CONTINUOUS
 62
     6
 10
43.150861
 20
208.308527
 40
0.155173
 50
84.999865
 51
179.942691
  0
ARC
  8
CSLAYER1
  6
CONTINUOUS
 62
     6
 10
42.918112
 20
208.516652
 40
0.077586
 50
0.000005
 51
90.000001
  0
LINE
  8
CSLAYER1
  6
CONTINUOUS
 62
     6
 10
42.918112
 20
208.594243
 11
42.530180
 21
208.594243
  0
ARC
  8
CSLAYER1
  6
CONTINUOUS
 62
     6
 10
42.530180
 20
208.516652
 40
0.077586
 50
90.000001
 51
179.942691
  0
LINE
  8
CSLAYER1
  6
CONTINUOUS
 62
     6
 10
42.995679
 20
206.806605
 11
42.452589
 21
206.462228
  0
LINE
  8
CSLAYER1
  6
CONTINUOUS
 62
     6
 10
42.995679
 20
206.418673
 11
42.452589
 21
206.074296
  0
LINE
  8
CSLAYER1
  6
CONTINUOUS
 62
     6
 10
42.452593
 20
203.844255
 11
42.452593
 21
208.844255
  0
LINE
  8
CSLAYER1
  6
CONTINUOUS
 62
     6
 10
42.452593
 20
208.844255
 11
41.952593
 21
208.844255
  0
LINE
  8
CSLAYER1
  6
CONTINUOUS
 62
     6
 10
42.452593
 20
203.844255
 11
41.952593
 21
203.844255
  0
LINE
  8
CSLAYER1
  6
CONTINUOUS
 62
     6
 10
42.995679
 20
200.766652
 11
42.995679
 21
196.421834
  0
ARC
  8
CSLAYER1
  6
CONTINUOUS
 62
     6
 10
39.116361
 20
198.594243
 40
5.431046
 50
-16.257006
 51
16.257016
  0
LINE
  8
CSLAYER1
  6
CONTINUOUS
 62
     6
 10
43.164405
 20
196.475380
 11
43.653061
 21
196.518130
  0
ARC
  8
CSLAYER1
  6
CONTINUOUS
 62
     6
 10
43.585438
 20
197.291046
 40
0.775864
 50
275.000111
 51
343.742611
  0
ARC
  8
CSLAYER1
  6
CONTINUOUS
 62
     6
 10
43.150861
 20
196.629959
 40
0.155173
 50
180.000000
 51
275.000152
  0
LINE
  8
CSLAYER1
  6
CONTINUOUS
 62
     6
 10
42.918112
 20
196.344243
 11
42.530180
 21
196.344243
  0
ARC
  8
CSLAYER1
  6
CONTINUOUS
 62
     6
 10
42.918112
 20
196.421834
 40
0.077586
 50
-89.999997
 51
0.000005
  0
ARC
  8
CSLAYER1
  6
CONTINUOUS
 62
     6
 10
42.530180
 20
196.421834
 40
0.077586
 50
180.000000
 51
270.000003
  0
LINE
  8
CSLAYER1
  6
CONTINUOUS
 62
     6
 10
43.164405
 20
200.713105
 11
43.653061
 21
200.670355
  0
ARC
  8
CSLAYER1
  6
CONTINUOUS
 62
     6
 10
43.585438
 20
199.897439
 40
0.775864
 50
16.257399
 51
84.999892
  0
ARC
  8
CSLAYER1
  6
CONTINUOUS
 62
     6
 10
43.150861
 20
200.558527
 40
0.155173
 50
84.999865
 51
179.942691
  0
ARC
  8
CSLAYER1
  6
CONTINUOUS
 62
     6
 10
42.918112
 20
200.766652
 40
0.077586
 50
0.000005
 51
90.000001
  0
LINE
  8
CSLAYER1
  6
CONTINUOUS
 62
     6
 10
42.918112
 20
200.844243
 11
42.530180
 21
200.844243
  0
ARC
  8
CSLAYER1
  6
CONTINUOUS
 62
     6
 10
42.530180
 20
200.766652
 40
0.077586
 50
90.000001
 51
179.942691
  0
LINE
  8
CSLAYER1
  6
CONTINUOUS
 62
     6
 10
42.995679
 20
199.056605
 11
42.452589
 21
198.712228
  0
LINE
  8
CSLAYER1
  6
CONTINUOUS
 62
     6
 10
42.995679
 20
198.668673
 11
42.452589
 21
198.324296
  0
LINE
  8
CSLAYER1
  6
CONTINUOUS
 62
     6
 10
42.452593
 20
196.094255
 11
42.452593
 21
201.094255
  0
LINE
  8
CSLAYER1
  6
CONTINUOUS
 62
     6
 10
42.452593
 20
201.094255
 11
41.952593
 21
201.094255
  0
LINE
  8
CSLAYER1
  6
CONTINUOUS
 62
     6
 10
42.452593
 20
196.094255
 11
41.952593
 21
196.094255
  0
LINE
  8
CSLAYER1
  6
CONTINUOUS
 62
     6
 10
42.995679
 20
193.016652
 11
42.995679
 21
188.671834
  0
ARC
  8
CSLAYER1
  6
CONTINUOUS
 62
     6
 10
39.116361
 20
190.844243
 40
5.431046
 50
-16.257006
 51
16.257016
  0
LINE
  8
CSLAYER1
  6
CONTINUOUS
 62
     6
 10
43.164405
 20
188.725380
 11
43.653061
 21
188.768130
  0
ARC
  8
CSLAYER1
  6
CONTINUOUS
 62
     6
 10
43.585438
 20
189.541046
 40
0.775864
 50
275.000111
 51
343.742611
  0
ARC
  8
CSLAYER1
  6
CONTINUOUS
 62
     6
 10
43.150861
 20
188.879959
 40
0.155173
 50
180.000000
 51
275.000152
  0
LINE
  8
CSLAYER1
  6
CONTINUOUS
 62
     6
 10
42.918112
 20
188.594243
 11
42.530180
 21
188.594243
  0
ARC
  8
CSLAYER1
  6
CONTINUOUS
 62
     6
 10
42.918112
 20
188.671834
 40
0.077586
 50
-89.999997
 51
0.000005
  0
ARC
  8
CSLAYER1
  6
CONTINUOUS
 62
     6
 10
42.530180
 20
188.671834
 40
0.077586
 50
180.000000
 51
270.000003
  0
LINE
  8
CSLAYER1
  6
CONTINUOUS
 62
     6
 10
43.164405
 20
192.963105
 11
43.653061
 21
192.920355
  0
ARC
  8
CSLAYER1
  6
CONTINUOUS
 62
     6
 10
43.585438
 20
192.147439
 40
0.775864
 50
16.257399
 51
84.999892
  0
ARC
  8
CSLAYER1
  6
CONTINUOUS
 62
     6
 10
43.150861
 20
192.808527
 40
0.155173
 50
84.999865
 51
179.942691
  0
ARC
  8
CSLAYER1
  6
CONTINUOUS
 62
     6
 10
42.918112
 20
193.016652
 40
0.077586
 50
0.000005
 51
90.000001
  0
LINE
  8
CSLAYER1
  6
CONTINUOUS
 62
     6
 10
42.918112
 20
193.094243
 11
42.530180
 21
193.094243
  0
ARC
  8
CSLAYER1
  6
CONTINUOUS
 62
     6
 10
42.530180
 20
193.016652
 40
0.077586
 50
90.000001
 51
179.942691
  0
LINE
  8
CSLAYER1
  6
CONTINUOUS
 62
     6
 10
42.995679
 20
191.306605
 11
42.452589
 21
190.962228
  0
LINE
  8
CSLAYER1
  6
CONTINUOUS
 62
     6
 10
42.995679
 20
190.918673
 11
42.452589
 21
190.574296
  0
LINE
  8
CSLAYER1
  6
CONTINUOUS
 62
     6
 10
42.452593
 20
188.344255
 11
42.452593
 21
193.344255
  0
LINE
  8
CSLAYER1
  6
CONTINUOUS
 62
     6
 10
42.452593
 20
193.344255
 11
41.952593
 21
193.344255
  0
LINE
  8
CSLAYER1
  6
CONTINUOUS
 62
     6
 10
42.452593
 20
188.344255
 11
41.952593
 21
188.344255
  0
LINE
  8
CSLAYER1
  6
CONTINUOUS
 62
     6
 10
42.995679
 20
185.266652
 11
42.995679
 21
180.921834
  0
ARC
  8
CSLAYER1
  6
CONTINUOUS
 62
     6
 10
39.116361
 20
183.094243
 40
5.431046
 50
-16.257006
 51
16.257016
  0
LINE
  8
CSLAYER1
  6
CONTINUOUS
 62
     6
 10
43.164405
 20
180.975380
 11
43.653061
 21
181.018130
  0
ARC
  8
CSLAYER1
  6
CONTINUOUS
 62
     6
 10
43.585438
 20
181.791046
 40
0.775864
 50
275.000111
 51
343.742611
  0
ARC
  8
CSLAYER1
  6
CONTINUOUS
 62
     6
 10
43.150861
 20
181.129959
 40
0.155173
 50
180.000000
 51
275.000152
  0
LINE
  8
CSLAYER1
  6
CONTINUOUS
 62
     6
 10
42.918112
 20
180.844243
 11
42.530180
 21
180.844243
  0
ARC
  8
CSLAYER1
  6
CONTINUOUS
 62
     6
 10
42.918112
 20
180.921834
 40
0.077586
 50
-89.999997
 51
0.000005
  0
ARC
  8
CSLAYER1
  6
CONTINUOUS
 62
     6
 10
42.530180
 20
180.921834
 40
0.077586
 50
180.000000
 51
270.000003
  0
LINE
  8
CSLAYER1
  6
CONTINUOUS
 62
     6
 10
43.164405
 20
185.213105
 11
43.653061
 21
185.170355
  0
ARC
  8
CSLAYER1
  6
CONTINUOUS
 62
     6
 10
43.585438
 20
184.397439
 40
0.775864
 50
16.257399
 51
84.999892
  0
ARC
  8
CSLAYER1
  6
CONTINUOUS
 62
     6
 10
43.150861
 20
185.058527
 40
0.155173
 50
84.999865
 51
179.942691
  0
ARC
  8
CSLAYER1
  6
CONTINUOUS
 62
     6
 10
42.918112
 20
185.266652
 40
0.077586
 50
0.000005
 51
90.000001
  0
LINE
  8
CSLAYER1
  6
CONTINUOUS
 62
     6
 10
42.918112
 20
185.344243
 11
42.530180
 21
185.344243
  0
ARC
  8
CSLAYER1
  6
CONTINUOUS
 62
     6
 10
42.530180
 20
185.266652
 40
0.077586
 50
90.000001
 51
179.942691
  0
LINE
  8
CSLAYER1
  6
CONTINUOUS
 62
     6
 10
42.995679
 20
183.556605
 11
42.452589
 21
183.212228
  0
LINE
  8
CSLAYER1
  6
CONTINUOUS
 62
     6
 10
42.995679
 20
183.168673
 11
42.452589
 21
182.824296
  0
LINE
  8
CSLAYER1
  6
CONTINUOUS
 62
     6
 10
42.452593
 20
180.594255
 11
42.452593
 21
185.594255
  0
LINE
  8
CSLAYER1
  6
CONTINUOUS
 62
     6
 10
42.452593
 20
185.594255
 11
41.952593
 21
185.594255
  0
LINE
  8
CSLAYER1
  6
CONTINUOUS
 62
     6
 10
42.452593
 20
180.594255
 11
41.952593
 21
180.594255
  0
LINE
  8
CSLAYER1
  6
CONTINUOUS
 62
     6
 10
42.995679
 20
177.516652
 11
42.995679
 21
173.171834
  0
ARC
  8
CSLAYER1
  6
CONTINUOUS
 62
     6
 10
39.116361
 20
175.344243
 40
5.431046
 50
-16.257006
 51
16.257016
  0
LINE
  8
CSLAYER1
  6
CONTINUOUS
 62
     6
 10
43.164405
 20
173.225380
 11
43.653061
 21
173.268130
  0
ARC
  8
CSLAYER1
  6
CONTINUOUS
 62
     6
 10
43.585438
 20
174.041046
 40
0.775864
 50
275.000111
 51
343.742611
  0
ARC
  8
CSLAYER1
  6
CONTINUOUS
 62
     6
 10
43.150861
 20
173.379959
 40
0.155173
 50
180.000000
 51
275.000152
  0
LINE
  8
CSLAYER1
  6
CONTINUOUS
 62
     6
 10
42.918112
 20
173.094243
 11
42.530180
 21
173.094243
  0
ARC
  8
CSLAYER1
  6
CONTINUOUS
 62
     6
 10
42.918112
 20
173.171834
 40
0.077586
 50
-89.999997
 51
0.000005
  0
ARC
  8
CSLAYER1
  6
CONTINUOUS
 62
     6
 10
42.530180
 20
173.171834
 40
0.077586
 50
180.000000
 51
270.000003
  0
LINE
  8
CSLAYER1
  6
CONTINUOUS
 62
     6
 10
43.164405
 20
177.463105
 11
43.653061
 21
177.420355
  0
ARC
  8
CSLAYER1
  6
CONTINUOUS
 62
     6
 10
43.585438
 20
176.647439
 40
0.775864
 50
16.257399
 51
84.999892
  0
ARC
  8
CSLAYER1
  6
CONTINUOUS
 62
     6
 10
43.150861
 20
177.308527
 40
0.155173
 50
84.999865
 51
179.942691
  0
ARC
  8
CSLAYER1
  6
CONTINUOUS
 62
     6
 10
42.918112
 20
177.516652
 40
0.077586
 50
0.000005
 51
90.000001
  0
LINE
  8
CSLAYER1
  6
CONTINUOUS
 62
     6
 10
42.918112
 20
177.594243
 11
42.530180
 21
177.594243
  0
ARC
  8
CSLAYER1
  6
CONTINUOUS
 62
     6
 10
42.530180
 20
177.516652
 40
0.077586
 50
90.000001
 51
179.942691
  0
LINE
  8
CSLAYER1
  6
CONTINUOUS
 62
     6
 10
42.995679
 20
175.806605
 11
42.452589
 21
175.462228
  0
LINE
  8
CSLAYER1
  6
CONTINUOUS
 62
     6
 10
42.995679
 20
175.418673
 11
42.452589
 21
175.074296
  0
LINE
  8
CSLAYER1
  6
CONTINUOUS
 62
     6
 10
42.452593
 20
172.844255
 11
42.452593
 21
177.844255
  0
LINE
  8
CSLAYER1
  6
CONTINUOUS
 62
     6
 10
42.452593
 20
177.844255
 11
41.952593
 21
177.844255
  0
LINE
  8
CSLAYER1
  6
CONTINUOUS
 62
     6
 10
42.452593
 20
172.844255
 11
41.952593
 21
172.844255
  0
LINE
  8
CSLAYER1
  6
CONTINUOUS
 62
     6
 10
42.995679
 20
169.766652
 11
42.995679
 21
165.421834
  0
ARC
  8
CSLAYER1
  6
CONTINUOUS
 62
     6
 10
39.116361
 20
167.594243
 40
5.431046
 50
-16.257006
 51
16.257016
  0
LINE
  8
CSLAYER1
  6
CONTINUOUS
 62
     6
 10
43.164405
 20
165.475380
 11
43.653061
 21
165.518130
  0
ARC
  8
CSLAYER1
  6
CONTINUOUS
 62
     6
 10
43.585438
 20
166.291046
 40
0.775864
 50
275.000111
 51
343.742611
  0
ARC
  8
CSLAYER1
  6
CONTINUOUS
 62
     6
 10
43.150861
 20
165.629959
 40
0.155173
 50
180.000000
 51
275.000152
  0
LINE
  8
CSLAYER1
  6
CONTINUOUS
 62
     6
 10
42.918112
 20
165.344243
 11
42.530180
 21
165.344243
  0
ARC
  8
CSLAYER1
  6
CONTINUOUS
 62
     6
 10
42.918112
 20
165.421834
 40
0.077586
 50
-89.999997
 51
0.000005
  0
ARC
  8
CSLAYER1
  6
CONTINUOUS
 62
     6
 10
42.530180
 20
165.421834
 40
0.077586
 50
180.000000
 51
270.000003
  0
LINE
  8
CSLAYER1
  6
CONTINUOUS
 62
     6
 10
43.164405
 20
169.713105
 11
43.653061
 21
169.670355
  0
ARC
  8
CSLAYER1
  6
CONTINUOUS
 62
     6
 10
43.585438
 20
168.897439
 40
0.775864
 50
16.257399
 51
84.999892
  0
ARC
  8
CSLAYER1
  6
CONTINUOUS
 62
     6
 10
43.150861
 20
169.558527
 40
0.155173
 50
84.999865
 51
179.942691
  0
ARC
  8
CSLAYER1
  6
CONTINUOUS
 62
     6
 10
42.918112
 20
169.766652
 40
0.077586
 50
0.000005
 51
90.000001
  0
LINE
  8
CSLAYER1
  6
CONTINUOUS
 62
     6
 10
42.918112
 20
169.844243
 11
42.530180
 21
169.844243
  0
ARC
  8
CSLAYER1
  6
CONTINUOUS
 62
     6
 10
42.530180
 20
169.766652
 40
0.077586
 50
90.000001
 51
179.942691
  0
LINE
  8
CSLAYER1
  6
CONTINUOUS
 62
     6
 10
42.995679
 20
168.056605
 11
42.452589
 21
167.712228
  0
LINE
  8
CSLAYER1
  6
CONTINUOUS
 62
     6
 10
42.995679
 20
167.668673
 11
42.452589
 21
167.324296
  0
LINE
  8
CSLAYER1
  6
CONTINUOUS
 62
     6
 10
42.452593
 20
165.094255
 11
42.452593
 21
170.094255
  0
LINE
  8
CSLAYER1
  6
CONTINUOUS
 62
     6
 10
42.452593
 20
170.094255
 11
41.952593
 21
170.094255
  0
LINE
  8
CSLAYER1
  6
CONTINUOUS
 62
     6
 10
42.452593
 20
165.094255
 11
41.952593
 21
165.094255
  0
LINE
  8
CSLAYER1
  6
CONTINUOUS
 62
     6
 10
129.529411
 20
225.181753
 11
108.529411
 21
225.181753
  0
LINE
  8
CSLAYER1
  6
CONTINUOUS
 62
     6
 10
108.529411
 20
225.181753
 11
108.529411
 21
220.181753
  0
LINE
  8
CSLAYER1
  6
CONTINUOUS
 62
     6
 10
129.529411
 20
225.181753
 11
129.529411
 21
220.181753
  0
LINE
  8
CSLAYER1
  6
CONTINUOUS
 62
     6
 10
129.529411
 20
220.181753
 11
108.529411
 21
220.181753
  0
LINE
  8
CSLAYER1
  6
CONTINUOUS
 62
     6
 10
124.979411
 20
225.181753
 11
124.979411
 21
220.181753
  0
LINE
  8
CSLAYER1
  6
CONTINUOUS
 62
     6
 10
113.079411
 20
225.181753
 11
113.079411
 21
220.181753
  0
LINE
  8
CSLAYER1
  6
CONTINUOUS
 62
     3
 10
124.979411
 20
222.034724
 11
128.126440
 21
225.181753
  0
LINE
  8
CSLAYER1
  6
CONTINUOUS
 62
     3
 10
124.979411
 20
223.024674
 11
127.136491
 21
225.181753
  0
LINE
  8
CSLAYER1
  6
CONTINUOUS
 62
     3
 10
112.236996
 20
220.181753
 11
113.079411
 21
221.024169
  0
LINE
  8
CSLAYER1
  6
CONTINUOUS
 62
     3
 10
111.247047
 20
220.181753
 11
113.079411
 21
222.014118
  0
LINE
  8
CSLAYER1
  6
CONTINUOUS
 62
     3
 10
110.257097
 20
220.181753
 11
113.079411
 21
223.004068
  0
LINE
  8
CSLAYER1
  6
CONTINUOUS
 62
     3
 10
109.267148
 20
220.181753
 11
113.079411
 21
223.994017
  0
LINE
  8
CSLAYER1
  6
CONTINUOUS
 62
     3
 10
108.529411
 20
220.433967
 11
113.079411
 21
224.983967
  0
LINE
  8
CSLAYER1
  6
CONTINUOUS
 62
     3
 10
108.529411
 20
221.423916
 11
112.287249
 21
225.181753
  0
LINE
  8
CSLAYER1
  6
CONTINUOUS
 62
     3
 10
108.529411
 20
222.413866
 11
111.297299
 21
225.181753
  0
LINE
  8
CSLAYER1
  6
CONTINUOUS
 62
     3
 10
108.529411
 20
223.403815
 11
110.307350
 21
225.181753
  0
LINE
  8
CSLAYER1
  6
CONTINUOUS
 62
     3
 10
124.979411
 20
221.044775
 11
129.116390
 21
225.181753
  0
LINE
  8
CSLAYER1
  6
CONTINUOUS
 62
     3
 10
125.106339
 20
220.181753
 11
129.529411
 21
224.604825
  0
LINE
  8
CSLAYER1
  6
CONTINUOUS
 62
     3
 10
126.096289
 20
220.181753
 11
129.529411
 21
223.614876
  0
LINE
  8
CSLAYER1
  6
CONTINUOUS
 62
     3
 10
127.086238
 20
220.181753
 11
129.529411
 21
222.624926
  0
LINE
  8
CSLAYER1
  6
CONTINUOUS
 62
     3
 10
128.076188
 20
220.181753
 11
129.529411
 21
221.634977
  0
LINE
  8
CSLAYER1
  6
CONTINUOUS
 62
     3
 10
129.066137
 20
220.181753
 11
129.529411
 21
220.645027
  0
LINE
  8
CSLAYER1
  6
CONTINUOUS
 62
     3
 10
108.529411
 20
224.393765
 11
109.317400
 21
225.181753
  0
LINE
  8
CSLAYER1
  6
CONTINUOUS
 62
     3
 10
124.979411
 20
224.014623
 11
126.146541
 21
225.181753
  0
LINE
  8
CSLAYER1
  6
CONTINUOUS
 62
     3
 10
124.979411
 20
225.004573
 11
125.156592
 21
225.181753
  0
ARC
  8
CSLAYER1
  6
CONTINUOUS
 62
     6
 10
38.100000
 20
222.681755
 40
3.500000
 50
45.000000
 51
146.061798
  0
LINE
  8
CSLAYER1
  6
CONTINUOUS
 62
     6
 10
40.574874
 20
225.156628
 11
41.281981
 21
225.863735
  0
LINE
  8
CSLAYER1
  6
CONTINUOUS
 62
     6
 10
40.574874
 20
220.206881
 11
41.281981
 21
219.499774
  0
ARC
  8
CSLAYER1
  6
CONTINUOUS
 62
     6
 10
38.100000
 20
222.681755
 40
3.500000
 50
213.938202
 51
315.000000
  0
LINE
  8
CSLAYER1
  6
CONTINUOUS
 62
     6
 10
52.586212
 20
176.947683
 11
57.413788
 21
176.947683
  0
ARC
  8
CSLAYER1
  6
CONTINUOUS
 62
     6
 10
52.586212
 20
176.861497
 40
0.086207
 50
90.000005
 51
180.000001
  0
LINE
  8
CSLAYER1
  6
CONTINUOUS
 62
     6
 10
52.500000
 20
176.861497
 11
52.500000
 21
176.430462
  0
LINE
  8
CSLAYER1
  6
CONTINUOUS
 62
     6
 10
54.486264
 20
176.947683
 11
54.868906
 21
176.344249
  0
LINE
  8
CSLAYER1
  6
CONTINUOUS
 62
     6
 10
57.500000
 20
176.861497
 11
57.500000
 21
176.430462
  0
ARC
  8
CSLAYER1
  6
CONTINUOUS
 62
     6
 10
57.413788
 20
176.861497
 40
0.086207
 50
0.000003
 51
90.000005
  0
LINE
  8
CSLAYER1
  6
CONTINUOUS
 62
     6
 10
54.917300
 20
176.947683
 11
55.299941
 21
176.344249
  0
ARC
  8
CSLAYER1
  6
CONTINUOUS
 62
     6
 10
57.413788
 20
176.430462
 40
0.086207
 50
-90.000000
 51
0.000003
  0
ARC
  8
CSLAYER1
  6
CONTINUOUS
 62
     6
 10
52.586212
 20
176.430462
 40
0.086207
 50
180.000001
 51
269.942691
  0
ARC
  8
CSLAYER1
  6
CONTINUOUS
 62
     6
 10
57.182538
 20
177.120108
 40
0.172414
 50
-90.000000
 51
5.299907
  0
ARC
  8
CSLAYER1
  6
CONTINUOUS
 62
     6
 10
52.817462
 20
177.120108
 40
0.172414
 50
174.700093
 51
269.942691
  0
LINE
  8
CSLAYER1
  6
CONTINUOUS
 62
     6
 10
57.354291
 20
177.135156
 11
57.306792
 21
177.678107
  0
LINE
  8
CSLAYER1
  6
CONTINUOUS
 62
     6
 10
52.645709
 20
177.135156
 11
52.693208
 21
177.678107
  0
ARC
  8
CSLAYER1
  6
CONTINUOUS
 62
     6
 10
56.447996
 20
177.602970
 40
0.862071
 50
5.000111
 51
29.827375
  0
ARC
  8
CSLAYER1
  6
CONTINUOUS
 62
     6
 10
53.552004
 20
177.602970
 40
0.862071
 50
150.172625
 51
174.999892
  0
CIRCLE
  8
CSLAYER1
  6
CONTINUOUS
 62
     6
 10
115.500000
 20
114.844254
 40
1.750000
  0
CIRCLE
  8
CSLAYER1
  6
CONTINUOUS
 62
     6
 10
115.500000
 20
114.844254
 40
3.000000
  0
CIRCLE
  8
CSLAYER1
  6
CONTINUOUS
 62
     6
 10
165.500000
 20
114.844254
 40
1.750000
  0
CIRCLE
  8
CSLAYER1
  6
CONTINUOUS
 62
     6
 10
165.500000
 20
114.844254
 40
3.000000
  0
ARC
  8
CSLAYER1
  6
CONTINUOUS
 62
     3
 10
188.500000
 20
165.844255
 40
1.750000
 50
156.769459
 51
165.557940
  0
ARC
  8
CSLAYER1
  6
CONTINUOUS
 62
     3
 10
188.500000
 20
165.844255
 40
1.750000
 50
194.442060
 51
203.230541
  0
ARC
  8
CSLAYER1
  6
CONTINUOUS
 62
     3
 10
188.500000
 20
165.844255
 40
1.750000
 50
175.093397
 51
184.906603
  0
LINE
  8
CSLAYER1
  6
CONTINUOUS
 62
     3
 10
114.829411
 20
222.681753
 11
114.934411
 21
222.734210
  0
LINE
  8
CSLAYER1
  6
CONTINUOUS
 62
     3
 10
114.934411
 20
222.734210
 11
115.039411
 21
222.786403
  0
LINE
  8
CSLAYER1
  6
CONTINUOUS
 62
     3
 10
115.039411
 20
222.786403
 11
115.144411
 21
222.838072
  0
LINE
  8
CSLAYER1
  6
CONTINUOUS
 62
     3
 10
115.144411
 20
222.838072
 11
115.249411
 21
222.888953
  0
LINE
  8
CSLAYER1
  6
CONTINUOUS
 62
     3
 10
115.249411
 20
222.888953
 11
115.354411
 21
222.938785
  0
LINE
  8
CSLAYER1
  6
CONTINUOUS
 62
     3
 10
115.354411
 20
222.938785
 11
115.459411
 21
222.987303
  0
LINE
  8
CSLAYER1
  6
CONTINUOUS
 62
     3
 10
115.459411
 20
222.987303
 11
115.564411
 21
223.034247
  0
LINE
  8
CSLAYER1
  6
CONTINUOUS
 62
     3
 10
115.564411
 20
223.034247
 11
115.669411
 21
223.079353
  0
LINE
  8
CSLAYER1
  6
CONTINUOUS
 62
     3
 10
115.669411
 20
223.079353
 11
115.774411
 21
223.122360
  0
LINE
  8
CSLAYER1
  6
CONTINUOUS
 62
     3
 10
115.774411
 20
223.122360
 11
115.879411
 21
223.163003
  0
LINE
  8
CSLAYER1
  6
CONTINUOUS
 62
     3
 10
115.879411
 20
223.163003
 11
115.984411
 21
223.201022
  0
LINE
  8
CSLAYER1
  6
CONTINUOUS
 62
     3
 10
115.984411
 20
223.201022
 11
116.089411
 21
223.236153
  0
LINE
  8
CSLAYER1
  6
CONTINUOUS
 62
     3
 10
116.089411
 20
223.236153
 11
116.194411
 21
223.268135
  0
LINE
  8
CSLAYER1
  6
CONTINUOUS
 62
     3
 10
116.194411
 20
223.268135
 11
116.299411
 21
223.296703
  0
LINE
  8
CSLAYER1
  6
CONTINUOUS
 62
     3
 10
116.299411
 20
223.296703
 11
116.404411
 21
223.321597
  0
LINE
  8
CSLAYER1
  6
CONTINUOUS
 62
     3
 10
116.404411
 20
223.321597
 11
116.509411
 21
223.342553
  0
LINE
  8
CSLAYER1
  6
CONTINUOUS
 62
     3
 10
116.509411
 20
223.342553
 11
116.614411
 21
223.359310
  0
LINE
  8
CSLAYER1
  6
CONTINUOUS
 62
     3
 10
116.614411
 20
223.359310
 11
116.719411
 21
223.371603
  0
LINE
  8
CSLAYER1
  6
CONTINUOUS
 62
     3
 10
116.719411
 20
223.371603
 11
116.824411
 21
223.379172
  0
LINE
  8
CSLAYER1
  6
CONTINUOUS
 62
     3
 10
116.824411
 20
223.379172
 11
116.929411
 21
223.381753
  0
LINE
  8
CSLAYER1
  6
CONTINUOUS
 62
     3
 10
116.929411
 20
223.381753
 11
117.034411
 21
223.379172
  0
LINE
  8
CSLAYER1
  6
CONTINUOUS
 62
     3
 10
117.034411
 20
223.379172
 11
117.139411
 21
223.371603
  0
LINE
  8
CSLAYER1
  6
CONTINUOUS
 62
     3
 10
117.139411
 20
223.371603
 11
117.244411
 21
223.359310
  0
LINE
  8
CSLAYER1
  6
CONTINUOUS
 62
     3
 10
117.244411
 20
223.359310
 11
117.349411
 21
223.342553
  0
LINE
  8
CSLAYER1
  6
CONTINUOUS
 62
     3
 10
117.349411
 20
223.342553
 11
117.454411
 21
223.321597
  0
LINE
  8
CSLAYER1
  6
CONTINUOUS
 62
     3
 10
117.454411
 20
223.321597
 11
117.559411
 21
223.296703
  0
LINE
  8
CSLAYER1
  6
CONTINUOUS
 62
     3
 10
117.559411
 20
223.296703
 11
117.664411
 21
223.268135
  0
LINE
  8
CSLAYER1
  6
CONTINUOUS
 62
     3
 10
117.664411
 20
223.268135
 11
117.769411
 21
223.236153
  0
LINE
  8
CSLAYER1
  6
CONTINUOUS
 62
     3
 10
117.769411
 20
223.236153
 11
117.874411
 21
223.201022
  0
LINE
  8
CSLAYER1
  6
CONTINUOUS
 62
     3
 10
117.874411
 20
223.201022
 11
117.979411
 21
223.163003
  0
LINE
  8
CSLAYER1
  6
CONTINUOUS
 62
     3
 10
117.979411
 20
223.163003
 11
118.084411
 21
223.122360
  0
LINE
  8
CSLAYER1
  6
CONTINUOUS
 62
     3
 10
118.084411
 20
223.122360
 11
118.189411
 21
223.079353
  0
LINE
  8
CSLAYER1
  6
CONTINUOUS
 62
     3
 10
118.189411
 20
223.079353
 11
118.294411
 21
223.034247
  0
LINE
  8
CSLAYER1
  6
CONTINUOUS
 62
     3
 10
118.294411
 20
223.034247
 11
118.399411
 21
222.987303
  0
LINE
  8
CSLAYER1
  6
CONTINUOUS
 62
     3
 10
118.399411
 20
222.987303
 11
118.504411
 21
222.938785
  0
LINE
  8
CSLAYER1
  6
CONTINUOUS
 62
     3
 10
118.504411
 20
222.938785
 11
118.609411
 21
222.888953
  0
LINE
  8
CSLAYER1
  6
CONTINUOUS
 62
     3
 10
118.609411
 20
222.888953
 11
118.714411
 21
222.838072
  0
LINE
  8
CSLAYER1
  6
CONTINUOUS
 62
     3
 10
118.714411
 20
222.838072
 11
118.819411
 21
222.786403
  0
LINE
  8
CSLAYER1
  6
CONTINUOUS
 62
     3
 10
118.819411
 20
222.786403
 11
118.924411
 21
222.734210
  0
LINE
  8
CSLAYER1
  6
CONTINUOUS
 62
     3
 10
118.924411
 20
222.734210
 11
119.134411
 21
222.629297
  0
LINE
  8
CSLAYER1
  6
CONTINUOUS
 62
     3
 10
123.229411
 20
222.681753
 11
123.124411
 21
222.629297
  0
LINE
  8
CSLAYER1
  6
CONTINUOUS
 62
     3
 10
123.124411
 20
222.629297
 11
123.019411
 21
222.577103
  0
LINE
  8
CSLAYER1
  6
CONTINUOUS
 62
     3
 10
123.019411
 20
222.577103
 11
122.914411
 21
222.525435
  0
LINE
  8
CSLAYER1
  6
CONTINUOUS
 62
     3
 10
122.914411
 20
222.525435
 11
122.809411
 21
222.474553
  0
LINE
  8
CSLAYER1
  6
CONTINUOUS
 62
     3
 10
122.809411
 20
222.474553
 11
122.704411
 21
222.424722
  0
LINE
  8
CSLAYER1
  6
CONTINUOUS
 62
     3
 10
122.704411
 20
222.424722
 11
122.599411
 21
222.376203
  0
LINE
  8
CSLAYER1
  6
CONTINUOUS
 62
     3
 10
122.599411
 20
222.376203
 11
122.494411
 21
222.329260
  0
LINE
  8
CSLAYER1
  6
CONTINUOUS
 62
     3
 10
122.494411
 20
222.329260
 11
122.389411
 21
222.284153
  0
LINE
  8
CSLAYER1
  6
CONTINUOUS
 62
     3
 10
122.389411
 20
222.284153
 11
122.284411
 21
222.241147
  0
LINE
  8
CSLAYER1
  6
CONTINUOUS
 62
     3
 10
122.284411
 20
222.241147
 11
122.179411
 21
222.200503
  0
LINE
  8
CSLAYER1
  6
CONTINUOUS
 62
     3
 10
122.179411
 20
222.200503
 11
122.074411
 21
222.162485
  0
LINE
  8
CSLAYER1
  6
CONTINUOUS
 62
     3
 10
122.074411
 20
222.162485
 11
121.969411
 21
222.127353
  0
LINE
  8
CSLAYER1
  6
CONTINUOUS
 62
     3
 10
121.969411
 20
222.127353
 11
121.864411
 21
222.095372
  0
LINE
  8
CSLAYER1
  6
CONTINUOUS
 62
     3
 10
121.864411
 20
222.095372
 11
121.759411
 21
222.066803
  0
LINE
  8
CSLAYER1
  6
CONTINUOUS
 62
     3
 10
121.759411
 20
222.066803
 11
121.654411
 21
222.041910
  0
LINE
  8
CSLAYER1
  6
CONTINUOUS
 62
     3
 10
121.654411
 20
222.041910
 11
121.549411
 21
222.020953
  0
LINE
  8
CSLAYER1
  6
CONTINUOUS
 62
     3
 10
121.549411
 20
222.020953
 11
121.444411
 21
222.004197
  0
LINE
  8
CSLAYER1
  6
CONTINUOUS
 62
     3
 10
121.444411
 20
222.004197
 11
121.339411
 21
221.991903
  0
LINE
  8
CSLAYER1
  6
CONTINUOUS
 62
     3
 10
121.339411
 20
221.991903
 11
121.234411
 21
221.984335
  0
LINE
  8
CSLAYER1
  6
CONTINUOUS
 62
     3
 10
121.234411
 20
221.984335
 11
121.129411
 21
221.981753
  0
LINE
  8
CSLAYER1
  6
CONTINUOUS
 62
     3
 10
121.129411
 20
221.981753
 11
121.024411
 21
221.984335
  0
LINE
  8
CSLAYER1
  6
CONTINUOUS
 62
     3
 10
121.024411
 20
221.984335
 11
120.919411
 21
221.991903
  0
LINE
  8
CSLAYER1
  6
CONTINUOUS
 62
     3
 10
120.919411
 20
221.991903
 11
120.814411
 21
222.004197
  0
LINE
  8
CSLAYER1
  6
CONTINUOUS
 62
     3
 10
120.814411
 20
222.004197
 11
120.709411
 21
222.020953
  0
LINE
  8
CSLAYER1
  6
CONTINUOUS
 62
     3
 10
120.709411
 20
222.020953
 11
120.604411
 21
222.041910
  0
LINE
  8
CSLAYER1
  6
CONTINUOUS
 62
     3
 10
120.604411
 20
222.041910
 11
120.499411
 21
222.066803
  0
LINE
  8
CSLAYER1
  6
CONTINUOUS
 62
     3
 10
120.499411
 20
222.066803
 11
120.394411
 21
222.095372
  0
LINE
  8
CSLAYER1
  6
CONTINUOUS
 62
     3
 10
120.394411
 20
222.095372
 11
120.289411
 21
222.127353
  0
LINE
  8
CSLAYER1
  6
CONTINUOUS
 62
     3
 10
120.289411
 20
222.127353
 11
120.184411
 21
222.162485
  0
LINE
  8
CSLAYER1
  6
CONTINUOUS
 62
     3
 10
120.184411
 20
222.162485
 11
120.079411
 21
222.200503
  0
LINE
  8
CSLAYER1
  6
CONTINUOUS
 62
     3
 10
120.079411
 20
222.200503
 11
119.974411
 21
222.241147
  0
LINE
  8
CSLAYER1
  6
CONTINUOUS
 62
     3
 10
119.974411
 20
222.241147
 11
119.869411
 21
222.284153
  0
LINE
  8
CSLAYER1
  6
CONTINUOUS
 62
     3
 10
119.869411
 20
222.284153
 11
119.764411
 21
222.329260
  0
LINE
  8
CSLAYER1
  6
CONTINUOUS
 62
     3
 10
119.764411
 20
222.329260
 11
119.659411
 21
222.376203
  0
LINE
  8
CSLAYER1
  6
CONTINUOUS
 62
     3
 10
119.659411
 20
222.376203
 11
119.554411
 21
222.424722
  0
LINE
  8
CSLAYER1
  6
CONTINUOUS
 62
     3
 10
119.554411
 20
222.424722
 11
119.449411
 21
222.474553
  0
LINE
  8
CSLAYER1
  6
CONTINUOUS
 62
     3
 10
119.449411
 20
222.474553
 11
119.344411
 21
222.525435
  0
LINE
  8
CSLAYER1
  6
CONTINUOUS
 62
     3
 10
119.344411
 20
222.525435
 11
119.239411
 21
222.577103
  0
LINE
  8
CSLAYER1
  6
CONTINUOUS
 62
     3
 10
119.239411
 20
222.577103
 11
119.134411
 21
222.629297
  0
LINE
  8
CSLAYER1
  6
CENTER
 62
     3
 10
25.100000
 20
165.844255
 11
17.500000
 21
165.844255
  0
LINE
  8
CSLAYER1
  6
CENTER
 62
     3
 10
25.100000
 20
215.844255
 11
17.500000
 21
215.844255
  0
LINE
  8
CSLAYER1
  6
CENTER
 62
     3
 10
61.500000
 20
146.844255
 11
61.500000
 21
154.444255
  0
LINE
  8
CSLAYER1
  6
CENTER
 62
     3
 10
55.499999
 20
146.844255
 11
55.499999
 21
154.444255
  0
LINE
  8
CSLAYER1
  6
CENTER
 62
     3
 10
26.500000
 20
146.844255
 11
26.500000
 21
154.444255
  0
LINE
  8
CSLAYER1
  6
CENTER
 62
     3
 10
167.293914
 20
175.246581
 11
167.293915
 21
180.052848
  0
LINE
  8
CSLAYER1
  6
CONTINUOUS
 62
     3
 10
123.796542
 20
164.728869
 11
122.801798
 21
164.728869
  0
LINE
  8
CSLAYER1
  6
CONTINUOUS
 62
     3
 10
123.796542
 20
163.498100
 11
122.796542
 21
163.498100
  0
LINE
  8
CSLAYER1
  6
CONTINUOUS
 62
     3
 10
122.796542
 20
164.728869
 11
122.796542
 21
163.498100
  0
LINE
  8
CSLAYER1
  6
CONTINUOUS
 62
     3
 10
123.796542
 20
162.882715
 11
122.801798
 21
162.882715
  0
LINE
  8
CSLAYER1
  6
CONTINUOUS
 62
     3
 10
123.796542
 20
161.651946
 11
122.796542
 21
161.651946
  0
LINE
  8
CSLAYER1
  6
CONTINUOUS
 62
     3
 10
122.796542
 20
162.882715
 11
122.796542
 21
161.651946
  0
LINE
  8
CSLAYER1
  6
CONTINUOUS
 62
     3
 10
123.796542
 20
161.036561
 11
122.801798
 21
161.036561
  0
LINE
  8
CSLAYER1
  6
CONTINUOUS
 62
     3
 10
123.796542
 20
159.805792
 11
122.796542
 21
159.805792
  0
LINE
  8
CSLAYER1
  6
CONTINUOUS
 62
     3
 10
122.796542
 20
161.036561
 11
122.796542
 21
159.805792
  0
LINE
  8
CSLAYER1
  6
CONTINUOUS
 62
     3
 10
123.796542
 20
159.190407
 11
122.801798
 21
159.190407
  0
LINE
  8
CSLAYER1
  6
CONTINUOUS
 62
     3
 10
123.796542
 20
157.959638
 11
122.796542
 21
157.959638
  0
LINE
  8
CSLAYER1
  6
CONTINUOUS
 62
     3
 10
122.796542
 20
159.190407
 11
122.796542
 21
157.959638
  0
LINE
  8
CSLAYER1
  6
CONTINUOUS
 62
     3
 10
129.796542
 20
164.728869
 11
130.791286
 21
164.728869
  0
LINE
  8
CSLAYER1
  6
CONTINUOUS
 62
     3
 10
129.796542
 20
163.498100
 11
130.796542
 21
163.498100
  0
LINE
  8
CSLAYER1
  6
CONTINUOUS
 62
     3
 10
130.796542
 20
164.728869
 11
130.796542
 21
163.498100
  0
LINE
  8
CSLAYER1
  6
CONTINUOUS
 62
     3
 10
129.796542
 20
162.882715
 11
130.791286
 21
162.882715
  0
LINE
  8
CSLAYER1
  6
CONTINUOUS
 62
     3
 10
129.796542
 20
161.651946
 11
130.796542
 21
161.651946
  0
LINE
  8
CSLAYER1
  6
CONTINUOUS
 62
     3
 10
130.796542
 20
162.882715
 11
130.796542
 21
161.651946
  0
LINE
  8
CSLAYER1
  6
CONTINUOUS
 62
     3
 10
129.796542
 20
161.036561
 11
130.791286
 21
161.036561
  0
LINE
  8
CSLAYER1
  6
CONTINUOUS
 62
     3
 10
129.796542
 20
159.805792
 11
130.796542
 21
159.805792
  0
LINE
  8
CSLAYER1
  6
CONTINUOUS
 62
     3
 10
130.796542
 20
161.036561
 11
130.796542
 21
159.805792
  0
LINE
  8
CSLAYER1
  6
CONTINUOUS
 62
     3
 10
129.796542
 20
159.190407
 11
130.791286
 21
159.190407
  0
LINE
  8
CSLAYER1
  6
CONTINUOUS
 62
     3
 10
129.796542
 20
157.959638
 11
130.796542
 21
157.959638
  0
LINE
  8
CSLAYER1
  6
CONTINUOUS
 62
     3
 10
130.796542
 20
159.190407
 11
130.796542
 21
157.959638
  0
LINE
  8
CSLAYER1
  6
CONTINUOUS
 62
     3
 10
178.001963
 20
214.177587
 11
178.001963
 21
216.677587
  0
LINE
  8
CSLAYER1
  6
CONTINUOUS
 62
     3
 10
171.501963
 20
213.311561
 11
171.501963
 21
198.043612
  0
LINE
  8
CSLAYER1
  6
CONTINUOUS
 62
     3
 10
177.501963
 20
198.043612
 11
177.501963
 21
213.311561
  0
ARC
  8
CSLAYER1
  6
CONTINUOUS
 62
     3
 10
177.501963
 20
214.177587
 40
0.500000
 50
300.000000
 51
360.000000
  0
ARC
  8
CSLAYER1
  6
CONTINUOUS
 62
     3
 10
178.001963
 20
213.311561
 40
0.500000
 50
120.000000
 51
180.000000
  0
ARC
  8
CSLAYER1
  6
CONTINUOUS
 62
     3
 10
177.001963
 20
216.677587
 40
1.000000
 50
0.000000
 51
90.000000
  0
LINE
  8
CSLAYER1
  6
CONTINUOUS
 62
     3
 10
171.001963
 20
214.177587
 11
171.001963
 21
216.677587
  0
ARC
  8
CSLAYER1
  6
CONTINUOUS
 62
     3
 10
171.501963
 20
214.177587
 40
0.500000
 50
180.000000
 51
240.000000
  0
ARC
  8
CSLAYER1
  6
CONTINUOUS
 62
     3
 10
171.001963
 20
213.311561
 40
0.500000
 50
0.000000
 51
60.000000
  0
ARC
  8
CSLAYER1
  6
CONTINUOUS
 62
     3
 10
172.001963
 20
216.677587
 40
1.000000
 50
90.000000
 51
180.000000
  0
LINE
  8
CSLAYER1
  6
CONTINUOUS
 62
     3
 10
172.001963
 20
193.677587
 11
177.001963
 21
193.677587
  0
LINE
  8
CSLAYER1
  6
CONTINUOUS
 62
     3
 10
171.001963
 20
197.177587
 11
171.001963
 21
194.677587
  0
ARC
  8
CSLAYER1
  6
CONTINUOUS
 62
     3
 10
171.501963
 20
197.177587
 40
0.500000
 50
120.000000
 51
180.000000
  0
ARC
  8
CSLAYER1
  6
CONTINUOUS
 62
     3
 10
171.001963
 20
198.043612
 40
0.500000
 50
300.000000
 51
360.000000
  0
ARC
  8
CSLAYER1
  6
CONTINUOUS
 62
     3
 10
172.001963
 20
194.677587
 40
1.000000
 50
180.000000
 51
270.000000
  0
LINE
  8
CSLAYER1
  6
CONTINUOUS
 62
     3
 10
178.001963
 20
197.177587
 11
178.001963
 21
194.677587
  0
ARC
  8
CSLAYER1
  6
CONTINUOUS
 62
     3
 10
177.501963
 20
197.177587
 40
0.500000
 50
0.000000
 51
60.000000
  0
ARC
  8
CSLAYER1
  6
CONTINUOUS
 62
     3
 10
178.001963
 20
198.043612
 40
0.500000
 50
180.000000
 51
240.000000
  0
ARC
  8
CSLAYER1
  6
CONTINUOUS
 62
     3
 10
177.001963
 20
194.677587
 40
1.000000
 50
270.000000
 51
360.000000
  0
LINE
  8
CSLAYER1
  6
CONTINUOUS
 62
     3
 10
168.001963
 20
217.677587
 11
163.001963
 21
217.677587
  0
LINE
  8
CSLAYER1
  6
CONTINUOUS
 62
     3
 10
169.001963
 20
214.177587
 11
169.001963
 21
216.677587
  0
LINE
  8
CSLAYER1
  6
CONTINUOUS
 62
     3
 10
162.501963
 20
213.311561
 11
162.501963
 21
198.043612
  0
LINE
  8
CSLAYER1
  6
CONTINUOUS
 62
     3
 10
168.501963
 20
198.043612
 11
168.501963
 21
213.311561
  0
ARC
  8
CSLAYER1
  6
CONTINUOUS
 62
     3
 10
168.501963
 20
214.177587
 40
0.500000
 50
300.000000
 51
360.000000
  0
ARC
  8
CSLAYER1
  6
CONTINUOUS
 62
     3
 10
169.001963
 20
213.311561
 40
0.500000
 50
120.000000
 51
180.000000
  0
ARC
  8
CSLAYER1
  6
CONTINUOUS
 62
     3
 10
168.001963
 20
216.677587
 40
1.000000
 50
0.000000
 51
90.000000
  0
LINE
  8
CSLAYER1
  6
CONTINUOUS
 62
     3
 10
162.001963
 20
214.177587
 11
162.001963
 21
216.677587
  0
ARC
  8
CSLAYER1
  6
CONTINUOUS
 62
     3
 10
162.501963
 20
214.177587
 40
0.500000
 50
180.000000
 51
240.000000
  0
ARC
  8
CSLAYER1
  6
CONTINUOUS
 62
     3
 10
162.001963
 20
213.311561
 40
0.500000
 50
0.000000
 51
60.000000
  0
ARC
  8
CSLAYER1
  6
CONTINUOUS
 62
     3
 10
163.001963
 20
216.677587
 40
1.000000
 50
90.000000
 51
180.000000
  0
LINE
  8
CSLAYER1
  6
CONTINUOUS
 62
     3
 10
163.001963
 20
193.677587
 11
168.001963
 21
193.677587
  0
LINE
  8
CSLAYER1
  6
CONTINUOUS
 62
     3
 10
162.001963
 20
197.177587
 11
162.001963
 21
194.677587
  0
ARC
  8
CSLAYER1
  6
CONTINUOUS
 62
     3
 10
162.501963
 20
197.177587
 40
0.500000
 50
120.000000
 51
180.000000
  0
ARC
  8
CSLAYER1
  6
CONTINUOUS
 62
     3
 10
162.001963
 20
198.043612
 40
0.500000
 50
300.000000
 51
360.000000
  0
ARC
  8
CSLAYER1
  6
CONTINUOUS
 62
     3
 10
163.001963
 20
194.677587
 40
1.000000
 50
180.000000
 51
270.000000
  0
LINE
  8
CSLAYER1
  6
CONTINUOUS
 62
     3
 10
169.001963
 20
197.177587
 11
169.001963
 21
194.677587
  0
ARC
  8
CSLAYER1
  6
CONTINUOUS
 62
     3
 10
168.501963
 20
197.177587
 40
0.500000
 50
0.000000
 51
60.000000
  0
ARC
  8
CSLAYER1
  6
CONTINUOUS
 62
     3
 10
169.001963
 20
198.043612
 40
0.500000
 50
180.000000
 51
240.000000
  0
ARC
  8
CSLAYER1
  6
CONTINUOUS
 62
     3
 10
168.001963
 20
194.677587
 40
1.000000
 50
270.000000
 51
360.000000
  0
LINE
  8
CSLAYER1
  6
CENTER
 62
     3
 10
84.500000
 20
146.844255
 11
84.500000
 21
154.444255
  0
LINE
  8
CSLAYER1
  6
CENTER
 62
     3
 10
115.500000
 20
146.844255
 11
115.500000
 21
154.444255
  0
LINE
  8
CSLAYER1
  6
CENTER
 62
     3
 10
165.500000
 20
146.844255
 11
165.500000
 21
154.444255
  0
LINE
  8
CSLAYER1
  6
CENTER
 62
     3
 10
188.500000
 20
146.844255
 11
188.500000
 21
154.444255
  0
LINE
  8
CSLAYER1
  6
DOT
 62
     3
 10
54.999987
 20
175.246582
 11
54.999987
 21
180.052849
  0
ARC
  8
CSLAYER1
  6
DOT
 62
     3
 10
55.000000
 20
172.637329
 40
6.034495
 50
73.742994
 51
106.257016
  0
ENDSEC
  0
EOF
